Song name
# A B C D E F G H I J K L M N O P Q R S T U V W X Y Z

Friendly Fires - Paris tab

i love this song to pieces, and thats why i wanted to write a tab for it because i 
couldnt find a tab that sounded alot like the song so i decided to tab a verson that i think 
is usfeul for an acoustic guitar or electric guitar. i hope it is useful to you too.

CHORDS:
verses                           chourus

F#min7                            Amaj7
e--x--|                             --0--|
B--2--|                             --5--|
G--2--|                             --6--|
D--2--|                             --7--|
A--x--|                             --0--|
E--2--|                             --x--|
G#min7                            Emaj7
e--x--|                             --4--|
B--4--|                             --4--|
G--4--|                             --4--|
D--4--|                             --6--|
A--x--|                             --7--|
E--4--|                             --0--|


One day         were  gonna  live             in   Paris
e-------x-x-x-x-x------------------x-x-x-x-x--------------x-x-x-x-x---|
B-------2-x-2-x-2------------------2-x-2-x-2--------------2-x-2-x-2---|
G-------2-x-2-x-2------------------2-x-2-x-2--------------2-x-2-x-2---|
D-------2-x-2-x-2------------------2-x-2-x-2--------------2-x-2-x-2---|
A-------x-x-x-x-x------------------x-x-x-x-x--------------x-x-x-x-x---|
E-------2-x-2-x-2------------------2-x-2-x-2--------------2-x-2-x-2---|

e-----x-x-x-x-x-|
B-----2-x-2-x-2-|
G-----2-x-2-x-2-|
D-----2-x-2-x-2-|
A-----x-x-x-x-x-|
E-----2-x-2-x-2-|
I promise                                       Im on it
e---------x-x-x-x-x----------------x-x-x-x-x--------------x-x-x-x-x---|
B---------4-x-4-x-4----------------4-x-4-x-4--------------4-x-4-x-4---|
G---------4-x-4-x-4----------------4-x-4-x-4--------------4-x-4-x-4---|
D---------4-x-4-x-4----------------4-x-4-x-4--------------4-x-4-x-4---|
A---------x-x-x-x-x----------------x-x-x-x-x--------------x-x-x-x-x---|
E---------4-x-4-x-4----------------4-x-4-x-4--------------4-x-4-x-4---|

e-----x-x-x-x-x-|
B-----4-x-4-x-4-|
G-----4-x-4-x-4-|
D-----4-x-4-x-4-|
A-----x-x-x-x-x-|
E-----4-x-4-x-4-|

When Im bringing in the money
F#min7
I promise Im on it
G#min7
Im gonna take you out to club showcase Were gonna live it up
F#min7
I promise Just hold on a little more
G#min7

try to execute the chourus with continious struming.

And   every night     well      watch  the  stars
e------0--7--4-4~-----------------0------7----4-4~---------------------|
B------5--5--5-5~-----------------5------5----5-5~---------------------|
G------6--6--6-6~-----------------6------6----6-6~---------------------|
D------7--7--7-7~-----------------7------7----7-7~---------------------|
A------0--0--0-0~-----------------0------0----0-0~---------------------|
E------x--x--x-x~-----------------x------x----x-x~---------------------|

 Theyll be  out       for         us
e-----------4----------4-----------4----------------------|
B-----------4----------4-----------4----------------------|
G-----------4----------4-----------4----------------------|
D-----------6----------6-----------6----------------------|
A-----------7----------7-----------7----------------------|
E-----------0----------0-----------0----------------------|
Theyll be out for us
Emaj7
And every night, the city lights
Amaj7
Theyll be out for us
Emaj7
Theyll be out for us
Emaj7

One day were gonna live in Paris
I promise
Im on it
Ill find you that french boy,
Youll find me that french girl
I promise
Im on it

So go and pack your bags
For the long haul
Were gonna lose ourselves
I promise
This time its you and me forever more

And every night well watch the stars
Theyll be out for us
Theyll be out for us
And every night, the city lights
Theyll be out for us
Theyll be out for us

And every night well watch the stars
Theyll be out for us
Theyll be out for us
And every night, the city lights
Theyll be out for us
Theyll be out for us

i hope this is helpfull so people it may not sound like the original but its the closest 
i could get with out effects.
Tap to rate this tab
 
# A B C D E F G H I J K L M N O P Q R S T U V W X Y Z