Song name
# A B C D E F G H I J K L M N O P Q R S T U V W X Y Z

From First To Last - Worlds Away tab

okay, first off, i know from first to last plays in C
but this is for the people who play in D

Intro:
Matt
E|-------------------------------------------------------------------------|
B|-------------------------------------------------------------------------|
G|10-10-10-10-10h11b-10-8---13-15-10h11-10h11-10-8-10-6-8-6----------------|
D|------------------------11-----------------------------------------------|
A|-------------------------------------------------------------------------|
D|-------------------------------------------------------------------------|
Travis 
E|-------------------------------------------------------------------------|
B|-------------------------------------------------------------------------|
G|-3-3-3-3-3-3-3-3-6-6-6-6---------6-6-6-6-6-6-6-6-------------------------|
D|-3-3-3-3-3-3-3-3-6-6-6-6-4-4-4-4-6-6-6-6-6-6-6-6-------------------------|
A|-1-1-1-1-1-1-1-1-4-4-4-4-4-4-4-4-4-4-4-4-4-4-4-4-------------------------|
D|-------------------------4-4-4-4-----------------------------------------|



Verse1:
Travis (plays this 2 times)
E|-------------------------------------------------------------------------|
B|-------------------------------------------------------------------------|
G|--------------------------------10-10-10---------11-11-11-11-------------|
D|-8-8-8-8---------11-11-11-8-8-8----------11-11-11------------------------|
A|---------8-8-8-8---------------------------------------------------------|
D|-------------------------------------------------------------------------|
continued..
E|----------------------|
B|-10-10-10-10----------|
G|----------------------|
D|----------------------|
A|----------------------|
D|----------------------|

E|-------------------------------------------------------------------------|
B|-------------------------------------------------------------------------|
G|-----------------------------------10-10-10---------11-11-11-11----------|
D|--------------------11-11-11-8-8-8----------11-11-11---------------------|
A|------------8-8-8-8------------------------------------------------------|
D|11-11-11-11--------------------------------------------------------------|

E|--------------------|
B|-10-10-10-10--------|
G|--------------------|
D|--------------------|
A|--------------------|
D|--------------------|

E|-------------------------------------------------------------------------|
B|-------------------------------------------------------------------------|
G|--------------------------------10-10-10---------11-11-11-11-------------|
D|----------------11-11-11-8-8-8----------11-11-11-------------------------|
A|--------8-8-8-8----------------------------------------------------------|
D|8-8-8-8------------------------------------------------------------------|
continued..
E|-------------------|
B|-10-10-10-10-------|
G|-------------------|
D|-------------------|
A|-------------------|
D|-------------------|

E|-------------------------------------------------------------------------|
B|-------------------------------------------------------------------------|
G|--------------------------------10-10-10---------11-11-11-11-------------|
D|-----------------11-11-11-8-8-8----------11-11-11------------------------|
A|---------8-8-8-8---------------------------------------------------------|
D|-4-4-4-4-----------------------------------------------------------------|
continued..
E|-------------------------------------------------------------------------|
B|-10-10-10-10-------------------------------------------------------------|
G|-------------------------------------------------------------------------|
D|-------------------------------------------------------------------------|
A|-------------------------------------------------------------------------|
D|-------------------------------------------------------------------------|

Pre Chorus:
E|---------------------------|
B|-2---2---2-----------------|
G|-3---3---3-----------------|
D|---------------------------|
A|---1---1--1----------------|
D|---------------------------|

Chorus1: (both guitars play 2 times)
E|-------------------------------------------------------------------------|
B|-------------------------------------------------------------------------|
G|-3-3-3-3-3-3-3-3-6-6-6-6---------6-6-6-6-6-6-6-6-------------------------|
D|-3-3-3-3-3-3-3-3-6-6-6-6-4-4-4-4-6-6-6-6-6-6-6-6-------------------------|
A|-1-1-1-1-1-1-1-1-4-4-4-4-4-4-4-4-4-4-4-4-4-4-4-4-------------------------|
D|-------------------------4-4-4-4-----------------------------------------|

Verse2:
Travis									
E|-------------------------------------------------------------------------|
B|-------------------------------------------------------------------------|
G|--------------------------------10-10-10---------11-11-11-11-------------|
D|-8-8-8-8---------11-11-11-8-8-8----------11-11-11------------------------|
A|---------8-8-8-8---------------------------------------------------------|
D|-------------------------------------------------------------------------|
continued..
E|----------------------|
B|-10-10-10-10----------|
G|----------------------|
D|----------------------|
A|----------------------|
D|----------------------|

E|-------------------------------------------------------------------------|
B|-------------------------------------------------------------------------|
G|-----------------------------------10-10-10---------11-11-11-11----------|
D|--------------------11-11-11-8-8-8----------11-11-11---------------------|
A|------------8-8-8-8------------------------------------------------------|
D|11-11-11-11--------------------------------------------------------------|

E|--------------------|
B|-10-10-10-10--------|
G|--------------------|
D|--------------------|
A|--------------------|
D|--------------------| play those twice

E|-------------------------------------------------------------------------|
B|-------------------------------------------------------------------------|
G|--------------------------------10-10-10---------11-11-11-11-------------|
D|----------------11-11-11-8-8-8----------11-11-11-------------------------|
A|--------8-8-8-8----------------------------------------------------------|
D|8-8-8-8------------------------------------------------------------------|
continued..
E|-------------------|
B|-10-10-10-10-------|
G|-------------------|
D|-------------------|
A|-------------------|
D|-------------------|

E|-------------------------------------------------------------------------|
B|-------------------------------------------------------------------------|
G|--------------------------------10-10-10---------11-11-11-11-------------|
D|-----------------11-11-11-8-8-8----------11-11-11------------------------|
A|---------8-8-8-8---------------------------------------------------------|
D|-4-4-4-4-----------------------------------------------------------------|
continued..
E|-------------------------------------------------------------------------|
B|-10-10-10-10-------------------------------------------------------------|
G|-------------------------------------------------------------------------|
D|-------------------------------------------------------------------------|
A|-------------------------------------------------------------------------|
D|-------------------------------------------------------------------------|
	
Pre-Chorus
Chorusx4

Bridgex4 same as pre- chorus

then 
E|-------------------------------------------------------------------------|
B|-------------------------------------------------------------------------|
G|-------------------------------------------------------------------------|
D|-1--1--1--1--4--4--4--4--------------------------------------------------|
A|-1--1--1--1--4--4--4--4--------------------------------------------------|
D|-1--1--1--1--4--4--4--4--------------------------------------------------|
(pause between each note)
Chorus x2

Outro: 
Matt
Intro:
Matt
E|-------------------------------------------------------------------------|
B|-------------------------------------------------------------------------|
G|10-10-10-10-10h11b-10-8---13-15-10h11-10h11-10-8-10-6-8-6----------------|
D|------------------------11-----------------------------------------------|
A|-------------------------------------------------------------------------|
D|-------------------------------------------------------------------------|


Outro:
Matt x2
E|-------------------------------------------------------------------------|
B|-------------------------------------------------------------------------|
G|10-10-10-10-10h11b-10-8---13-15-10h11-10h11-10-8-10-6-8-6----------------|
D|------------------------11-----------------------------------------------|
A|-------------------------------------------------------------------------|
D|-------------------------------------------------------------------------|

Travis
same notes as chorus but with a different stumming pattern

thats it!
tell me if there is anything wrong :]
thank you
-D'Ryan
Tap to rate this tab
 
# A B C D E F G H I J K L M N O P Q R S T U V W X Y Z