Guitaretab - guitar tabs
Song name
# A B C D E F G H I J K L M N O P Q R S T U V W X Y Z

From First To Last - Emily tab

ktmboy601@yahoo.com
acoustic459
PLEASE RATE!


This tab is perfect except for the second verse. It was taught to me by From First TO Last.

Intro - Guitar 1                                             (Harmonics)
e|--------------|--------------|--------------|--------------|---------|
b|----------0---|----------0---|--------------|----------0---|-(12)----|
G|-----0------0-|-----0------0-|-----0----7-0-|-----0------0-|----(12)-|
D|--------------|--------------|--------------|--------------|---------|
A|-3-3---3------|-7-7---7------|-5-5---5------|-3-3---3------|---------|
E|--------------|--------------|--------------|--------------|---------|

e|--------------|-------------------|-------------------------|
b|----------0---|-------------------|-------------------------|
G|-----0------0-|-----0----7-54h5p4-|-----7-----7-----7/97----|
D|--------------|-------------------|-4h5---4h5---4h5---------|
A|-7-7---7------|-5-5---5-----------|-------------------------|
E|--------------|-------------------|-------------------------|

e|--------------------|-------------------------|
B|--------------------|-------------------------|
G|-5-4---7-5-4-5-4-4--|-----7-----7-----7/97----|
D|-----5----------7-7-|-4h5---4h5---4h5---------|
A|--------------------|-------------------------|
E|--------------------|-------------------------|

e|--------------------------|
B|-888-777-88-101010-888-77-|
G|--------------------------|
D|--------------------------|
A|--------------------------|
E|--------------------------|

Intro - Guitar 2
e|--------------|--------------|--------------|
b|----------0---|----------0---|----------0---|
G|------------0-|------------0-|------------0-|
D|-----5--------|-----9--------|-----7--------|
A|-3-3---3------|-7-7---7------|-5-5---5------|
E|--------------|--------------|--------------| x3

e|--------------|--------------|-----------------|
b|----------0---|----------0---|----------0------|
G|------------0-|------------0-|----------------0|
D|-----5--------|-----9--------|-----7------7----|
A|-3-3---3------|-7-7---7------|-5-5---5------5--|
E|--------------|--------------|-----------------|

Verse - Guitar 1
e|----------------|---------------|-----------------|
b|--------0-------|-------0-------|---------0-------|
G|----------0-----|---------0-----|-----------0-----|
D|-----5--------5-|---5---------5-|-----9-----------|
A|-3-3---3----3---|-3---3-----3---|-7-7---7------7--|
E|----------------|---------------|-----------------|

e|-------------------|
b|-------------------|
G|---------7-5-4h5p4-|
D|-----7-------------|
A|-5-5---5-----------|
E|-------------------|


e|------------------|---------------|------------------|
b|------------------|-------0-------|---------0--------|
G|------------------|---------0-----|-----0-----0------|
D|-----5----55---5--|---5---------5-|------------------|
A|-3-3---3-----3----|-3---3-----3---|-7-7---7------7---|
E|------------------|---------------|------------------|

e|-------------------|
b|-------------------|
G|---------7-5-4h5p4-|
D|-----7-------------|
A|-5-5---5-----------|
E|-------------------| x2

e|------------------|---------------|------------------|
b|------------------|-------0-------|---------0--------|
G|------------------|---------0-----|-----0-----0------|
D|-----5----55---5--|---5---------5-|------------------|
A|-3-3---3-----3----|-3---3-----3---|-7-7---7------7---|
E|------------------|---------------|------------------|

e|----------------------|
b|----------------------|
G|----------------------|
D|-----7---77---7-------|
A|-5-5---5----5---------|
E|----------------------|

Verse - Guitar 2
e|----------|-----------|
b|----------|-----------|
G|-55555555-|-9999-7777-|
D|-55555555-|-9999-7777-|
A|-33333333-|-7777-5555-|
E|----------|-----------| x4
I donít want to figure out the freakiní strumming, so do it yourself you bum.
[ Tab from: http://www.guitaretab.com/f/from-first-to-last/131904.html ]
Chorus - Guitar 1 and 2
e|-------xx-xx-xx-xx-xx-xx-xx-xx-|-------x-x-x-x-x-x-x-x-|
b|-------xx-xx-xx-xx-xx-xx-xx-xx-|-------x-x-x-x-x-x-x-x-|
G|-99-77-12-12-12-12-12-12-12-12-|-99-77-5-5-5-5-5-5-5-5-|
D|-99 77 12-12-12-12-12-12-12-12-|-99-77-5-5-5-5-5-5-5-5-|
A|-77-55-10-10-10-10-10-10-10-10-|-77-55-3-3-3-3-3-3-3-3-|
E|-------------------------------|-----------------------|

e|-------xx-xx-xx-xx-xx-xx-xx-xx-|-------x-x-x-x-xxxx-|-x-xx-xx-|
b|-------xx-xx-xx-xx-xx-xx-xx-xx-|-------x-x-x-x-xxxx-|-x-xx-xx-|
G|-99-77-12-12-12-12-12-12-12-12-|-99-77-5-5-5-5-5555-|-7-77-77-|
D|-99 77 12-12-12-12-12-12-12-12-|-99-77-5-5-5-5-5555-|-7-77-77-|
A|-77-55-10-10-10-10-10-10-10-10-|-77-55-3-3-3-3-3333-|-5-55-55-|
E|-------------------------------|--------------------|---------|
And once again, figure it out yourselves. Iíve got the basic thing down, but itís a 
shortened.

Bridge - Guitar 1
e|--------------|--------------|----------------|--------------|
b|----------0---|----------0---|----------------|----------0---|
G|-----0------0-|-----0------0-|-----0----(7)-0-|-----0------0-|
D|--------------|--------------|----------------|--------------|
A|-3-3---3------|-7-7---7------|-5-5---5--------|-3-3---3------|
E|--------------|--------------|----------------|--------------|

e|---------|--------------|-------------------|
b|-(12)----|----------0---|-------------------|
G|----(12)-|-----0------0-|-----0----7-54h5p4-|
D|---------|--------------|-------------------|
A|---------|-7-7---7------|-5-5---5-----------|
E|---------|--------------|-------------------|

Bridge - Guitar 2
e|--------------|--------------|--------------|
b|----------0---|----------0---|----------0---|
G|------------0-|------------0-|--------------|
D|-----5--------|-----9--------|-----7------7-|
A|-3-3---3------|-7-7---7------|-5-5---5------|
E|--------------|--------------|--------------|

Verse - Guitar 1
e|----------------|---------------|-----------------|
b|--------0-------|-------0-------|---------0-------|
G|----------0-----|---------0-----|-----------0-----|
D|-----5--------5-|---5---------5-|-----9-----------|
A|-3-3---3----3---|-3---3-----3---|-7-7---7------7--|
E|----------------|---------------|-----------------|

e|----------------------|
b|----------------------|
G|----------------------|
D|-----7---77---7-------|
A|-5-5---5----5---------|
E|----------------------|

e|------------------|---------------|------------------|
b|------------------|---------------|---------0--------|
G|------------------|---------------|-----0-----0------|
D|-----5----55---5--|---5---5-5---5-|------------------|
A|-3-3---3-----3----|-3---3-----3---|-7-7---7------7---|
E|------------------|---------------|------------------|

e|----------------------|
b|----------------------|
G|----------------------|
D|-----7---77---7-------|
A|-5-5---5----5---------|
E|----------------------|

e|------------------|---------------|------------------|
b|------------------|---------------|---------0--------|
G|------------------|---------------|-----0-----0------|
D|-----5----55---5--|---5---5-5---5-|------------------|
A|-3-3---3-----3----|-3---3-----3---|-7-7---7------7---|
E|------------------|---------------|------------------|

e|-------------------|
b|-------------------|
G|---------7-5-4h5p4-|
D|-----7-------------|
A|-5-5---5-----------|
E|-------------------| x2

Verse - Guitar 2
e|----------|-----------|
b|----------|-----------|
G|-55555555-|-9999-7777-|
D|-55555555-|-9999-7777-|
A|-33333333-|-7777-5555-|
E|----------|-----------| x4

Chorus - Guitar 1 and 2
e|-------xx-xx-xx-xx-xx-xx-xx-xx-|-------x-x-x-x-x-x-x-x-|
b|-------xx-xx-xx-xx-xx-xx-xx-xx-|-------x-x-x-x-x-x-x-x-|
G|-99-77-12-12-12-12-12-12-12-12-|-99-77-5-5-5-5-5-5-5-5-|
D|-99 77 12-12-12-12-12-12-12-12-|-99-77-5-5-5-5-5-5-5-5-|
A|-77-55-10-10-10-10-10-10-10-10-|-77-55-3-3-3-3-3-3-3-3-|
E|-------------------------------|-----------------------|

e|-------xx-xx-xx-xx-xx-xx-xx-xx-|-------x-x-x-x-xxxx-|-x-xx-xx-|
b|-------xx-xx-xx-xx-xx-xx-xx-xx-|-------x-x-x-x-xxxx-|-x-xx-xx-|
G|-99-77-12-12-12-12-12-12-12-12-|-99-77-5-5-5-5-5555-|-7-77-77-|
D|-99 77 12-12-12-12-12-12-12-12-|-99-77-5-5-5-5-5555-|-7-77-77-|
A|-77-55-10-10-10-10-10-10-10-10-|-77-55-3-3-3-3-3333-|-5-55-55-|
E|-------------------------------|--------------------|---------|

Outro - Guitar 1
e|--------------|------|
b|----------0---|-(12)-|
G|-----0------0-|------|
D|--------------|------|
A|-3-3---3------|------|
E|--------------|------|

Outro - Guitar 2
e|--------------|
b|----------0---|
G|------------0-|
D|-----5--------|
A|-3-3---3------|
E|--------------|
Related for Emily tab
Emily chords by From First To Last