Song name
# A B C D E F G H I J K L M N O P Q R S T U V W X Y Z

From First To Last - Emily tab

    Alright guys ik there are a few songs on this tab but the best one is pretty messy 
confusing and there are a few things missing so i'm going to clean it up alil for you guys

Tuning DADGBE

E|-------------------------------------------------------------------|
B|-----------0---------------0---------------0-----------------------|
G|-------------0---------------0---------------0-------------12*-----|
D|-----5---------------9---------------7---------------5---------12*-|
A|-3-3----3-------7-7-----7-------5-5-----5-------3-3-----3----------|
D|-------------------------------------------------------------------|


E|-----------------------------------------------------------------|
B|-----------------------------------------------------------------|
G|-5-3-2h3p2-------7-------7-------7/9\7--7-5-4----7-5-4-5--2/4\2--|
D|------------4-5-----4-5-----4-5---------------5------------------|
A|-----------------------------------------------------------------|
D|-----------------------------------------------------------------|


E|------------------------------------------------------------------------|
B|----8888\7777/8888/10101010\8888\77-------------------------------------|
G|-7-------------------------------------0-0~-0~-0~-0000----0~----0~-0000-|
D|-------------------------------------5-5-5~-5~-5~-5555--9-9~--7-7~-7777-|
A|-------------------------------------3-3-3~-3~-3~-3333--7-7~--5-5~-5555-|
D|------------------------------------------------------------------------|


E|-------------------------------------------------------|
B|-------------------------------------------------------|
G|----------0~--0~--0~--0~--0~--0~--0~--0~--0~---0-0-0-0-|
D|-9-7-12--12~-12~-12~-12~-12~-12~-12~-12~-12~--12121212-|
A|-7-5-10--10~-10~-10~-10~-10~-10~-10~-10~-10~--10101010-|
D|-------------------------------------------------------|


E|-------------------------------------------|
B|-------------------------------------------|
G|--------0~-0~-0~-0~-0~-0~-0~--0000---------|
D|-9-7-5--5~-5~-5~-5~-5~-5~-5~--5555--9-7-12-|
A|-7-5-3--3~-3~-5~-3~-3~-3~-3~--3333--7-5-10-|
D|-------------------------------------------|


E|-----------------------------------------------|
B|-----------------------------------------------|
G|--0~--0~--0~--0~--0~--0~--0~--0~--0~---0-0-0-0-|
D|-12~-12~-12~-12~-12~-12~-12~-12~-12~--12121212-|
A|-10~-10~-10~-10~-10~-10~-10~-10~-10~--10101010-|
D|-----------------------------------------------|


E|-------------------------------------|
B|-------------------------------------|
G|--------0~-0~-0~-0~-0~-0~-0~--0000-0-|
D|-9-7-5--5~-5~-5~-5~-5~-5~-5~--5555-7-|
A|-7-5-3--3~-3~-3~-3~-3~-3~-3~--3333-5-|
D|-------------------------------------|


Repeat All

thats it note that it is the aco virison the electric virison is pretty much the same 
in a diff pattern
Tap to rate this tab
# A B C D E F G H I J K L M N O P Q R S T U V W X Y Z