Song name
# A B C D E F G H I J K L M N O P Q R S T U V W X Y Z

From First To Last - Minuet tab

From First To Last
Minuet
Guitar Tab
Drop D Tuning - DADGBE
Tabbed By Jonathan Mack

/ Slide Up

Intro
0:00
|---------------|-------------|-------------|---------------|
|---------------|-------------|-------------|---------------|
|--2-----2-----2|2-----2-----2|0-----0-----0|----5-----2/3--|
|----3-----3----|--3-----3----|--3-----3----|--2-----2------|  x2
|5-----5-----5--|----2-----2--|----1-----1--|3-----3--------|
|---------------|-------------|-------------|---------------|

0:15
|-----------|-----------|-----------|-------------|
|-----------|-----------|-----------|-------------|
|----2-----2|----3-----3|----5-----3|----3-2------|
|--3-----3--|--2-----2--|--3-----3--|--2-----5-3--| x1
|5-----5----|3-----3----|1-----1----|0------------|
|-----------|-----------|-----------|-------------|

0:21
|-----------|-----------|-----------|-------------|
|-----------|-----------|-----------|--------3/5--|
|----2-----2|----3-----3|----5-----3|----3-2------|
|--3-----3--|--2-----2--|--3-----3--|--2----------| x1
|5-----5----|3-----3----|1-----1----|0------------|
|-----------|-----------|-----------|-------------|

0:27
|------8----|------10-8--|------6----|-------------|
|----6---6--|----6------6|----6---6--|----8-----6--|
|--7-------7|--7---------|--7-------7|--6-----7----|
|0----------|0-----------|8----------|7-----5------| x2
|-----------|------------|-----------|-------------|
|-----------|------------|-----------|-------------|

0:38
|------------|-----------|-----------|-------------|
|------------|-----------|-----------|-------------|
|------10----|------9----|------5----|----0-----0--|
|----7----7--|----5---5--|----4---4--|--2-----2----| x1
|8-8--------8|7-7-------7|5-5-------5|3-----3------|
|------------|-----------|-----------|-------------|

0:45
|-----------|-----------|-----------|--------------|
|-----------|-----------|-----------|--------------|
|------2----|------7----|------9----|----10-----5--|
|----3---3--|----5---5--|----7---7--|--7------5----| x1
|1-1-------1|3-3-------3|5-5-------5|8------7------|
|-----------|-----------|-----------|--------------|

0:50                                               End On
|-----------|-----------|-----------|-------------  |----|
|-----------|-----------|-----------|-------------  |----|
|------2----|------7----|------9----|----10-----5-  |----|
|----3---3--|----5---5--|----7---7--|--7------5---  |10--| x1
|1-1-------1|3-3-------3|5-5-------5|8------7-----  |-8--|
|-----------|-----------|-----------|-------------  |-8--|
Tap to rate this tab
# A B C D E F G H I J K L M N O P Q R S T U V W X Y Z