Song name
# A B C D E F G H I J K L M N O P Q R S T U V W X Y Z

Fugazi - Turnover tab

Help us improve GuitareTab! Take a short survey!
Artist: Fugazi
Song: Turnover
Album: Repeater (1990)

Intro:

Fade in harmonics with volume knob/pedal.

e|--------------------------------------------------------------|
B|--------------------------------------------------------------|
G|--------------------------------------------------------------|
D|--------------------------------------------------------------|
A|-<12>------------<12>------------<12>------------<12>---------|
E|---------<12>------------<12>------------<12>------------<12>-|


Main riff (verses)

e|--------------------------------------------------------------|
B|--------------------------------------------------------------|
G|-11--14-14-14--12-12-12--11-11-11-----------------------------|
D|-x----x--x--x---x--x--x---x--x--x-----------------------------|
A|-9---12-12-12--10-10-10---9--9--9-----------------------------|
E|--------------------------------------------------------------|


Chorus riff

e|-----------------------------------------------------------------------|
B|-----------------------------------------------------------------------|
G|-----------------------------------------------------------------------|
D|-55555555-66666666-77777777-99999999-101010-9-101010-111111-10-1111-12-|
A|-33333333-44444444-55555555-77777777--8-8-8-7--8-8-8--9-9-9--8--9-9-10-|
E|-----------------------------------------------------------------------|




2:38 Onwards

e|--------------------------------------------------------------|
B|--------------------------------------------------------------|
G|------------------4-------------------------------------------|
D|-2-----------4------------------------------------------------|
A|-2------------------------------------------------------------|
E|-0-------5----------------------------------------------------|

Riff 1:

e|---------------------------------------------------------------|
B|---------------------------------------------------------------|
G|---------9999999--------9999999---------9999999---------999999-|
D|---------xxxxxxx--------xxxxxxx---------xxxxxxx---------xxxxxx-|
A|-2222222-7777777-222222-7777777-2222222-7777777-2222222-777777-|
E|-0000000---------000000---------0000000---------0000000--------|

Riff 2:

e|---------------------------------------------------------------------|
B|---------------------------------------------------------------------|
G|---77777777777777---77777777777777---77777777777777-2-77777777777777-|
D|-2-xxxxxxxxxxxxxx-2-xxxxxxxxxxxxxx-2-xxxxxxxxxxxxxx-2-xxxxxxxxxxxxxx-|
A|-2-55555555555555-2-55555555555555-2-55555555555555-2-55555555555555-|
E|-0----------------0----------------0----------------0----------------|
Related for Turnover tab