Song name
# A B C D E F G H I J K L M N O P Q R S T U V W X Y Z

Gary Clark Jr - I Dont Owe You A Thang tab

----------------------------------------------------------------------------
Gary Clark Jr. - I DON'T OWE YOU A THANG
----------------------------------------------------------------------------
I've seen that somebody already post this one but the pattern of the fingerpicking there 
was rather confusing for me so I thought to post how I play it, feel free to correct or 
add missing part. Cheers.

Tuning: Standard
*CAPO ON 5TH*

Main Riff - Finger-picking pattern *3 fingers only*

(1) thumb handles bottom E and D strings
(2) index finger handles B string
(3) middle finger handles e string

e|----0-----0---------0---------|
B|-----------------3------------|
G|------------------------------|
D|-------2-----2----------------|
A|------------------------------|
E|----3p0---3p0----0--0---------|

Little Variation on Riff - Finger-picking pattern *3 fingers only*

e|----0-----0-------------------|
B|-----------------3------------|
G|--------------------2--1------|
D|-------2-----2----------------|
A|------------------------------|
E|----3p0---3p0----0--0--0------|

During the variation the index finger will handle the G string
and the middle finger will handle B string

Bridge

e|--0------3---------------------------------------------------------------|
B|--0------2---------------------------------------------------------------|
G|--2------2---------------------------------------------------------------|
D|--1------2---------------------------------------------------------------|
A|--2------0---------------------------------------------------------------|
E|-------------------------------------------------------------------------|
Tap to rate this tab
# A B C D E F G H I J K L M N O P Q R S T U V W X Y Z