Song name
# A B C D E F G H I J K L M N O P Q R S T U V W X Y Z

Gentry Montgomery - Gone tab

-------------------------------------------------------------------------------
			     GONE-MONTGOMERY GENTRY
-------------------------------------------------------------------------------
Tabbed by: Guitars.r.love
Email: k12canada@gmail.com

Tuning:Standard

e|---------------------------------------------------------------------------|
B|--1----1-1-----0-----0-0---------------------------------------------------|
G|-2----2------0-----0-------------------------------------------------------|
D|0---0------0-----0---------------------------------------------------------|
A|---------------------------------------------------------------------------|
E|---------------------------------------------------------------------------|

e|---------------------------------------------------------------------------|
B|--1----1-1-----0-----0-0---------------------------------------------------|
G|-2----2------0-----0-------------------------------------------------------|
D|0---0------0-----0---------------------------------------------------------|
A|---------------------------------------------------------------------------|
E|---------------------------------------------------------------------------|

e|---------------------------------------------------------------------------|
B|--1----1-1-----0-----0-0---------------------------------------------------|
G|-2----2------0-----0-------------------------------------------------------|
D|0---0------0-----0---------------------------------------------------------|
A|---------------------------------------------------------------------------|
E|---------------------------------------------------------------------------|

e|---------------------------------------------------------------------------|
B|--1----1-1-----0-----0-0---------------------------------------------------|
G|-2----2------0-----0-------------------------------------------------------|
D|0---0------0-----0---------------------------------------------------------|
A|---------------------------------------------------------------------------|
E|---------------------------------------------------------------------------|

************************************

| /   slide up
| \   slide down
| h   hammer-on
| p   pull-off
| ~   vibrato
| +   harmonic
| x   Mute note
| b   Bend
| pb  Pre-bend
| br  Bend release
| pbr Pre-bend release
| brb Bend release bend

************************************
Tap to rate this tab
 
# A B C D E F G H I J K L M N O P Q R S T U V W X Y Z