Song name
# A B C D E F G H I J K L M N O P Q R S T U V W X Y Z

Gerald De Palmas - Regarde Moi Bien En Face tab

e---------------------------------------------------------------------|
B---------1------1h3--1----0------------0------------------------1----|
G---------2------2---2---0------------0-----------------------0-------|
D------2-----2-------------------------------------------2------------|
A-0------------------------------------------------0----3-------------|
E----------------------------------3----------------------------------|
 « Rien,
e---------------------------------------------------------------------|
B---------1------1h3--1----0------------0------------------------1----|
G---------2------2---2---0------------0-----------------------0-------|
D------2-----2-------------------------------------------2------------|
A-0------------------------------------------------0----3-------------|
E----------------------------------3----------------------------------|
 ….Rien ne dois jamais
e---------------------------------------------------------------------|
B---------1------1h3--1----0------------0------------------------1----|
G---------2------2---2---0------------0-----------------------0-------|
D------2-----2-------------------------------------------2------------|
A-0------------------------------------------------0----3-------------|
E----------------------------------3----------------------------------|
Te forcer à rester….
(comme ceci jusqu’au refrain)

Refrain :
     Am		    G	     F    Am
Regarde-moi bien en face __
	       G               F     Am
Il faut que tu t'y fasse __
		    G
Regarde-moi bien en face __
    Am	       C	       G
Tu vois tu ne m'aimes plus

Am Asus2 G F

Personne, personne ne t'en veut
Ca fait partie du jeu, tu sais
Je saurai faire semblant

D'être, d'être fort
Blasé, indifférent
Fais ce que tu dois
je suis prêt, vas-y je serre les dents

Refrain :
Regarde-moi bien en face
Il faut que tu t'y fasse
Regarde-moi bien en face
Tu vois tu ne m'aimes plus

Dm  C  G  F  C  G	(ce passage peut aussi bien ce faire en arpège que en rythmique)
Oh __oh ___
Dm  C  G  F  C  G

Refrain :
Regarde-moi bien en face
Il faut que tu t'y fasses
Regarde-moi bien en face
Tu vois tu ne m'aimes plus
Tap to rate this tab
# A B C D E F G H I J K L M N O P Q R S T U V W X Y Z