Song name
# A B C D E F G H I J K L M N O P Q R S T U V W X Y Z

Get Up Kids - Regret tab

Help us improve GuitareTab! Take a short survey!
Highlighted       Show chord diagrams
The Get Up Kids
Regret
Eudora
2001 Vagrant Records
Submitted by: paramore_fans@yahoo.com

Key: C and F

Chords used:
C -  x32010
G -  320003
Am - x02210
F -  133211
Bb - x13331
Dm - xx0231


Intro: C--Am--F

Guitar 2:
e|-----------------|
B|-----------------|
G|-4/5---------4/5-|
D|-x/x--5--5-5-x/x-| (x6)
A|-2/3--x--x-x-2/3-|
E|------3--3-3-----|

then

Am--C--F--C--F-Am-F-C-F-Am-F-C

Piano:
e|----1--3-|-5-3--1--0----|
B|-1-------|------------3-|
G|---------|--------------|
D|---------|--------------| (x4)
A|---------|--------------|
E|---------|--------------|
     x3


Verse 1:
F                        Bb
Maybe I've forgotten the name and the address
   F                             Bb          C
Of everyone I've ever known It's nothing I regret
Dm           Am
Save it for another day It's the
 Bb                                C---
school exam and the kids have run away


Guitar 2:
e|-----------------|
B|-----------------|
G|-4/5---------4/5-|
D|-x/x--5--5-5-x/x-|
A|-2/3--x--x-x-2/3-|
E|------3--3-3-----|


Chorus 1:
Am
I would like a place I could call my own
C
Have a conversation on the telephone
F
Wake up every day that would be a start
C
I would not complain of my wounded heart
F       Am          F              C
I was upset you see Almost all the time
F           Am            F           C
You used to be a stranger Now you are mine


Verse 2:
  F
I wouldn't even trust you
     Bb
I've not got much to give
      F
We're dealing in the limits
    Bb                C
And we don't know who with
Dm                Am
You may think I'm out of hand
     Bb
That I'm naive, I'll understand
   C              Am
On this occasion, it's not true
Bb                     C---
Look at me, I'm not you


Guitar 2:
e|-----------------|
B|-----------------|
G|-4/5---------4/5-|
D|-x/x--5--5-5-x/x-|
A|-2/3--x--x-x-2/3-|
E|------3--3-3-----|


Chorus 2:
Am
I would like a place I could call my own
C
Have a conversation on the telephone
F
Wake up every day that would be a start
F       Am         F               C
I was a short fuse Burning all the time
F          Am                F           C
You were a complete stranger Now you are mine


Interlude: F--Bb--F--Bb-C-Dm-Am-Bb--C

Guitar 2:
e|-5-5-5-----5--5-5-5-6----5-5-5-----5-5----8-6-5-6------|
B|-------6-8------------8--------6-8-----6----------6--8-|
G|-------------------------------------------------------|
D|-------------------------------------------------------|
A|-------------------------------------------------------|
E|-------------------------------------------------------|
then
e|-5-5-5-5---5------8-6-5-6------|
B|---------8---8-6----------6--8-|
G|-------------------------------|
D|-------------------------------|
A|-------------------------------|
E|-------------------------------|
then
e|-----------------|
B|-----------------|
G|-4/5---------4/5-|
D|-x/x--5--5-5-x/x-|
A|-2/3--x--x-x-2/3-|
E|------3--3-3-----|


Chorus 3:
Am
I would like a place I could call my own
C
Have a conversation on the telephone
F
Wake up every day that would be a start
C
I would not complain of my wounded heart
Am               C
  Just wait till tomorrow
                    F
I guess that's what they all say
       C
Just before they fall apart


Outro: 
(x8)

Piano:
e|----1--3-|-5-3--1--0----|
B|-1-------|------------3-|
G|---------|--------------|
D|---------|--------------| (x8)
A|---------|--------------|
E|---------|--------------|
     x3
Related for Regret tab