Guitaretab - guitar tabs
Song name
# A B C D E F G H I J K L M N O P Q R S T U V W X Y Z

Godsmack - Trippin tab

band: godsmack
song: trippin'
tuning: drop d (d,a,d,g,b,e) low to high (tune all strings down one full step)


intro: 

--------------5---------5---------------| 
----------4---------4--------3-4--------| 
-------7----7-----7---7----7------------| 
----------------------------------------| 
----------------------------------------| 
----------------------------------------| 

between verse and pre chorus 

----------------------------------------| 
----------------------------------------| 
----------------------------------------| 
--5-5-5--3-3-3--------------------------| 
--3-3-3--1-1-1--------------------------| 
----------------------------------------| 
[ Tab from: http://www.guitaretab.com/g/godsmack/121708.html ]
pre-chorus 
                          3x 
---------------------------|---------------------------| 
---------------------------|---------------------------| 
---------------------------|---------------------------| 
--0-0--0-0--0-0--0-0--666--|-0-0--0-0---0-0--0-0--3-3--| 
--0-0--0-0--0-0--0-0--666--|-0-0--0-0---0-0--0-0--3-3--| 
--0-0--0-0--0-0--0-0--666--|-0-0--0-0---0-0--0-0--3-3--| 

chorus 

------0--------------------| 
------2--------------------| 
------3-----3--------------| 
-0------1---1-\3-3---------| 
-0------1-----\3-3---------| 
-0------1-----\3-3---------| 


Gtr. 1 behind solo 
----------------------------------------| 
----------------------------------------| 
----------------------------------------| 
----------------------------------------| 
--3--3--1--1--0-0--0-0--0-0--0-0--666---| 
--3--3--1--1--0-0--0-0--0-0--0-0--666---| 

bit after last chorus 

gtr.1 does pre-chorus 
  //  // //  // //  // // // 
----------------------------------------| 
----------------------------------------| 
----------------------------------------| 
--0---6--0---6--0---6--0--6---0--(0)----| 
------------------------------0--(0)----| 
------------------------------0--(0)----|
Related for Trippin tab
Advertisement will be closed in 10 seconds