Song name
# A B C D E F G H I J K L M N O P Q R S T U V W X Y Z

Godsmack - Crying Like A Bitch tab

Intro and verse

E  : ----------------------------------------------------|
B : -----------------------------------------------------|
G : -----------------------------------------------------|
D : -----------------------------------------------------|
A : -000--000-  0 0 0----1   333-------------------------|
D : -000-  000  -0 0 0-----------------------------------|    3 times palm mute

E  : --------------------------------------------|
B : ---------------------------------------------|
G : ---------------------------------------------|
D : ---------------------------------------------|
A : -000 000-------------------------------------|
D : -000 000-----0 7 8 10 8 7 8------------------|

E  : ---------------------------------------------------------------|
B : ----------------------------------------------------------------|
G : ----------------------------------------------------------------|
D : ----------------------------------------------------------------|
A : --------------1 333---------------------------------------------|
D : 000 000 0 0 0------------3 times then -------50050050050050050--|

Chorus

E  : --------------------------------------------------------------|
B : -- 2-----------2---------2-------------------------------------|
G : -3-----------3---------3---------------------------------------|
D : ---------------------------------------------------------------|
A : -------3----------3--------- 3--------5----------8-------------|
D : -------3----------3---------3--------5----------8--------------|
Tap to rate this tab
 
# A B C D E F G H I J K L M N O P Q R S T U V W X Y Z