Song name
# A B C D E F G H I J K L M N O P Q R S T U V W X Y Z

Good Charlotte - Misery tab

INTRO
E|-------------------------------------------------------------|
B|-------------------------------------------------------------|
G|----13-----11-----8----13------------------------------------|
D|----X------X------X----X-------------------------------------|
A|----11-----9------6----11------------------------------------|
D|-------------------------------------------------------------|
PLAY THIS A COUPLE OF TIMES


VERSE
E|-----------------------------------|
B|-----------------------------------|
G|-----------------------------------|
D|---6--9--8--2--44--6---------------|
A|---6--9--8--2--44--6---------------|
D|---6--9--6--2--44--6---------------|


PRE-CHORUS
E|-----------------------------------|
B|-----------------------------------|
G|-----------------------------------|
D|--22-22-44-44-22-22-44-44-22-22-1--|
A|--22-22-44-44-22-22-44-44-22-22-1--|
D|--22-22-44-44-22-22-44-44-22-22-1--|


CHORUS
E|-------------------------------------------------------------|
B|-------------------------------------------------------------|
G|----13-----11-----8----13------------------------------------|
D|----X------X------X----X-------------------------------------|
A|----11-----9------6----11------------------------------------|
D|-------------------------------------------------------------|



AFTER THE CHORUS
E|------------------------------------|
B|------------------------------------|
G|------------------------------------|
D|--66--22--99--44--66--22--99--44----|
A|--66--22--99--44--66--22--99--44----|
D|--66--22--99--44--66--22--99--44----|


SOLO
E|--16-14-16-14-21-13--16-14-16-14-----------------------|
B|----------------------------------16--17--11h12p11--9--|
G|-------------------------------------------------------|
D|-------------------------------------------------------|
A|-------------------------------------------------------|
D|-------------------------------------------------------|
THEN PLAY THE TOP A COUPLE OF TIMES AND THAT'S IT



Tap to rate this tab
# A B C D E F G H I J K L M N O P Q R S T U V W X Y Z