Guitaretab - guitar tabs
Song name
# A B C D E F G H I J K L M N O P Q R S T U V W X Y Z

Good Charlotte - Victims Of Love tab

This is off GCs new album, good morning revival
Enjoy
Christi : )
Half step down tuning

Intro:
-----------------------------------------|
-----------------------------------------|
--3------7------3------7------5----------|
--3------7------3------7------5----------|
--1------5------1------5------3----------|
-----------------------------------------|

------------------------------|
------------------------------|
--3------7------3------5------|
--3------7------3------5------|
--1------5------1------3------|
------------------------------|

chorus
-----------------------------|
-----------------------------|
--3------7------3------------|
--3------7------3------------|
--1------5------1------------|
-----------------------------|    x3

--------------------|
--------------------|
--3------5----------|
--3------5----------|
--1------3----------|
--------------------|

verse
-------------------------|
-------------------------|
--7---5------------------|
--7---5----5--8----------|
--5---3----5--8----------|
-----------3--6----------|    x4
[ Tab from: http://www.guitaretab.com/g/good-charlotte/153394.html ]
chorus
-----------------------------|
-----------------------------|
--3------7------3------------|
--3------7------3------------|
--1------5------1------------|
-----------------------------|    x3

--------------------|
--------------------|
--3------5----------|
--3------5----------|
--1------3----------|
--------------------|

verse
-------------------------|
-------------------------|
--7---5------------------|
--7---5----5--8----------|
--5---3----5--8----------|
-----------3--6----------|    x4

bridge
-------------------------|
-------------------------|
--7----7-7-7-------------|
--x----x-x-x-------------|
--5----5-5-5-------------|        x2

chorus
-----------------------------|
-----------------------------|
--3------7------3------------|
--3------7------3------------|
--1------5------1------------|
-----------------------------|    x3

------------------------|
------------------------|
--3------5--------------|
--3------5--------------|
--1------3--------------|
------------------------|    x2

this song is great and so is this album
thanx for reading! make sure to rate!
Related for Victims Of Love tab