Song name
# A B C D E F G H I J K L M N O P Q R S T U V W X Y Z

Good Charlotte - Little Things tab

Grupo: Good Charlotte
Tutulo: Little Things
Intro	
E|-----------------------------
B|-----------------------------
G|66666------------222---------
D|66666-66-5-44444-222--------- X4
A|44444-66-5-44444-000---------
E|------44-3-22222-------------
Intro 2
E|------------------------|------
B|------------------------|------
G|66666------------222----|-22---
D|66666-66-5-44444-222-X2-|-22--- 
A|44444-66-5-44444-000----|-00---
E|------44-3-22222--------|------
Chorus
E|------------------------
B|------------------------
G|66666-------------22222-
D|66666-66666-44444-22222- X4
A|44444-66666-44444-00000-
E|------44444-22222-------
Bridge
E|-------------------------------
B|-------------------------------
G|----222----222----222----22222-
D|444422244442224444222444422222-
A|444400044440004444000444400000-
E|2222---2222---2222---2222------
Intro
E|-----------------------------
B|-----------------------------
G|66666------------222---------
D|66666-66-5-44444-222--------- X2
A|44444-66-5-44444-000---------
E|------44-3-22222-------------
Intro 2
E|------------------------|------
B|------------------------|------
G|66666------------222----|-22---
D|66666-66-5-44444-222-X2-|-22--- 
A|44444-66-5-44444-000----|-00---
E|------44-3-22222--------|------
Chorus
E|------------------------
B|------------------------
G|66666-------------22222-
D|66666-66666-44444-22222- X4
A|44444-66666-44444-00000-
E|------44444-22222-------
Bridge
E|-------------------------------
B|-------------------------------
G|----222----222----222----22222-
D|444422244442224444222444422222-
A|444400044440004444000444400000-
E|2222---2222---2222---2222------
Chorus
E|------------------------
B|------------------------
G|66666-------------22222-
D|66666-66666-44444-22222- X4
A|44444-66666-44444-00000-
E|------44444-22222-------
Intro
E|-----------------------------
B|-----------------------------
G|66666------------222---------
D|66666-66-5-44444-222--------- X2
A|44444-66-5-44444-000---------
E|------44-3-22222-------------

Tap to rate this tab
# A B C D E F G H I J K L M N O P Q R S T U V W X Y Z