Song name
# A B C D E F G H I J K L M N O P Q R S T U V W X Y Z

Good Charlotte - I Just Wanna Live tab

I Just Wanna Live                 Good Charlotte

 Intro
  Q=115
  A#5
 4/4
  Gtr I
    e  e   e  e   e  e   e  e     e  e   e  e   e  e   e  e
|-----------------------------|-----------------------------|
|-----------------------------|-----------------------------|
|-^10----^10----^10----^10----|-^10----^10----^10----^10----|
|-^-8----^-8----^-8----^-8----|-^-8----^-8----^-8----^-8----|
|-----------------------------|-----------------------------|
|-----^8-----^8-----^6-----^6-|-----^4-----^4-----^6-----^6-|
|
| Gtr II
|   W                             W
|-----------------------------|-----------------------------|
|-----------------------------|-----------------------------|
|-----------------------------|-----------------------------|
|-----------------------------|-----------------------------|
|-----------------------------|-----------------------------|
|-----------------------------|-----------------------------|


    e  e   e  e   e  e   e  e     e  e   e  e   e  e   e  e
|-----------------------------|------------------------------|
|-----------------------------|------------------------------|
|-^10----^10----^10----^10----|-^10----^10----^10----^10-----|
|-^-8----^-8----^-8----^-8----|-^-8----^-8----^-8----^-8-----|
|-----------------------------|------------------------------|
|-----^8-----^8-----^6-----^6-|-----^4-----^4-----^6-----^6--|
|
|                                 <
|   W                             W
|-----------------------------|------------------------------|
|-----------------------------|------------------------------|
|-----------------------------|------------------------------|
|-----------------------------|---8--------------------------|
|-----------------------------|---8--------------------------|
|-----------------------------|---8--------------------------|


 Verse
  N.C.
  Gtr V
                         <                       <
                         ~~~~~~~~~~~             ~~~~~~~~~~
  W          W           Q        E H    E   Q   Q       E Q.
|----------|----------|--------------------|--------------------|
|----------|----------|-11b11.5r=14--------|----11b11.5r=9------|
|----------|----------|--------------------|--------------------|
|----------|----------|--------------------|--------------------|
|----------|----------|--------------------|--------------------|
|----------|----------|--------------------|--------------------|


  A#5
    W                         W
|-------------------------|-------------------------|
|-------------------------|-------------------------|
|-------------------------|-------------------------|
|-------------------------|-------------------------|
|-------------------------|-------------------------|
|-------------------------|-------------------------|
|
| Gtr I
|   e E   e E   e E   e E     e E   e E   e E   e E
|-------------------------|-------------------------|
|-------------------------|-------------------------|
|-^10---^10---^10---^10---|-^10---^10---^10---^10---|
|-^-8---^-8---^-8---^-8---|-^-8---^-8---^-8---^-8---|
|-------------------------|-------------------------|
|-------------------------|-------------------------|


    <                                    <
    ~~~~~~~~~~~~~                        ~~~~~~~~~~~~~
    Q          E H           E     Q     Q          E Q.
|------------------------------|-------------------------------|
|--11b11.5r===14---------------|--------11b11.5r====9----------|
|------------------------------|-------------------------------|
|------------------------------|-------------------------------|
|------------------------------|-------------------------------|
|------------------------------|-------------------------------|
|
|   e      E   e E   e E   e E     e E   e      E   e E    e E
|------------------------------|-------------------------------|
|------------------------------|-------------------------------|
|-^10--------^10---^10---^10---|-^10---^10--------^10----^10---|
|-^-8--------^-8---^-8---^-8---|-^-8---^-8--------^-8----^-8---|
|------------------------------|-------------------------------|
|------------------------------|-------------------------------|


  A#5
  Gtr I
    e  e   e  e   e  e   e  e     e  e   e  e   e  e   e  e
|-----------------------------|-----------------------------|
|-----------------------------|-----------------------------|
|-^10----^10----^10----^10----|-^10----^10----^10----^10----|
|-^-8----^-8----^-8----^-8----|-^-8----^-8----^-8----^-8----|
|-----------------------------|-----------------------------|
|-----^8-----^8-----^8-----^8-|-----^6-----^6-----^6-----^6-|
|
| Gtr IV
|   E  E   E  E   E  E   E  E     E  E   E  E   E  E   E  E
|-----------------------------|-----------------------------|
|-----------------------------|-----------------------------|
|-----------------------------|-----------------------------|
|-----------------------------|-----------------------------|
|-----------------------------|-----------------------------|
|---8--8---8--8---8--8---8--8-|---6--6---6--6---6--6---6--6-|


                                A#5
    e  e   e  e   e  e   e  e     e H..
|-----------------------------|------------|
|-----------------------------|------------|
|-^10----^10----^10----^10----|-^10--------|
|-^-8----^-8----^-8----^-8----|-^-8--------|
|-----------------------------|------------|
|-----^4-----^4-----^4-----^4-|------------|
|
|   E  E   E  E   E  E   E  E     E H..
|-----------------------------|------------|
|-----------------------------|------------|
|-----------------------------|------------|
|-----------------------------|--11--------|
|-----------------------------|--11--------|
|---4--4---4--4---4--4---4--4-|--11--------|


   Chorus
    A#5                G#5        F#5                G#5
    Gtrs III, IV
     Q    E +S  S  S S E  E S S    Q    E +S  S  S S E  E S S
||------------------------------|-----------------------------|
||o-----------------------------|-----------------------------|
||------------------------------|-----------------------------|
||---8----8-(8)-x--x-x-6--6-x-x-|--4----4-(4)-x--x-x-6--6-x-x-|
||o--8----8-(8)-x--x-x-6--6-x-x-|--4----4-(4)-x--x-x-6--6-x-x-|
||---8----8-(8)-x--x-x-6--6-x-x-|--4----4-(4)-x--x-x-6--6-x-x-|
|
|   Gtr I
|    e E  e  E     e   E  e E      e E  e  E     e   E  e E
||------------------------------|-----------------------------|
||o-----------------------------|-----------------------------|
||--10---10-------10-----10-----|-10---10-------10-----10-----|
||---8----8--------8------8-----|--8----8--------8------8-----|
||o-----------------------------|-----------------------------|
||------------------------------|-----------------------------|


  A#5                G#5        F#5                G#5
   Q    E +S  S  S S E  E S S    Q    E +S  S  S S E  E S S
|-----------------------------|------------------------------||
|-----------------------------|-----------------------------o||
|-----------------------------|------------------------------||
|--8----8-(8)-x--x-x-6--6-x-x-|--4----4-(4)-x--x-x-6--6-x-x--||
|--8----8-(8)-x--x-x-6--6-x-x-|--4----4-(4)-x--x-x-6--6-x-x-o||
|--8----8-(8)-x--x-x-6--6-x-x-|--4----4-(4)-x--x-x-6--6-x-x--||
|
|  e E  e  E     e   E  e E      e E  e  E     e   E  e E
|-----------------------------|------------------------------||
|-----------------------------|-----------------------------o||
|-10---10-------10-----10-----|-10---10-------10-----10------||
|--8----8--------8------8-----|--8----8--------8------8------||
|-----------------------------|-----------------------------o||
|-----------------------------|------------------------------||


 Bridge
  A#5
    E H..                      W
|---------------------------|---------------------|
|---------------------------|---------------------|
|---------------------------|---------------------|
|---8-----------------------|---------------------|
|---8-----------------------|---------------------|
|---8-----------------------|---------------------|
|
| Gtr I
|   e E     e E   e E   e E    e E  e E  e E  e E
|---------------------------|---------------------|
|---------------------------|---------------------|
|-^10-----^10---^10---^10---|-^6---^8---^5---^6---|
|-^-8-----^-8---^-8---^-8---|-^8---^8---^8---^8---|
|---------------------------|---------------------|
|---------------------------|---------------------|


 Verse
  N.C.
  Gtr V
                         <                       <
                         ~~~~~~~~~~~             ~~~~~~~~~~
  W          W           Q        E H    E   Q   Q       E Q.
|----------|----------|--------------------|--------------------|
|----------|----------|-11b11.5r=14--------|----11b11.5r=9------|
|----------|----------|--------------------|--------------------|
|----------|----------|--------------------|--------------------|
|----------|----------|--------------------|--------------------|
|----------|----------|--------------------|--------------------|


  A#5
    W                         W
|-------------------------|-------------------------|
|-------------------------|-------------------------|
|-------------------------|-------------------------|
|-------------------------|-------------------------|
|-------------------------|-------------------------|
|-------------------------|-------------------------|
|
| Gtr I
|   e E   e E   e E   e E     e E   e E   e E   e E
|-------------------------|-------------------------|
|-------------------------|-------------------------|
|-^10---^10---^10---^10---|-^10---^10---^10---^10---|
|-^-8---^-8---^-8---^-8---|-^-8---^-8---^-8---^-8---|
|-------------------------|-------------------------|
|-------------------------|-------------------------|


    <                                    <
    ~~~~~~~~~~~~~                        ~~~~~~~~~~~~~
    Q          E H           E     Q     Q          E Q.
|------------------------------|-------------------------------|
|--11b11.5r===14---------------|--------11b11.5r====9----------|
|------------------------------|-------------------------------|
|------------------------------|-------------------------------|
|------------------------------|-------------------------------|
|------------------------------|-------------------------------|
|
|   e      E   e E   e E   e E     e E   e      E   e E    e E
|------------------------------|-------------------------------|
|------------------------------|-------------------------------|
|-^10--------^10---^10---^10---|-^10---^10--------^10----^10---|
|-^-8--------^-8---^-8---^-8---|-^-8---^-8--------^-8----^-8---|
|------------------------------|-------------------------------|
|------------------------------|-------------------------------|


  A#5
  Gtr I
    e  e   e  e   e  e   e  e     e  e   e  e   e  e   e  e
|-----------------------------|-----------------------------|
|-----------------------------|-----------------------------|
|-^10----^10----^10----^10----|-^10----^10----^10----^10----|
|-^-8----^-8----^-8----^-8----|-^-8----^-8----^-8----^-8----|
|-----------------------------|-----------------------------|
|-----^8-----^8-----^8-----^8-|-----^6-----^6-----^6-----^6-|
|
| Gtr IV
|   E  E   E  E   E  E   E  E     E  E   E  E   E  E   E  E
|-----------------------------|-----------------------------|
|-----------------------------|-----------------------------|
|-----------------------------|-----------------------------|
|-----------------------------|-----------------------------|
|-----------------------------|-----------------------------|
|---8--8---8--8---8--8---8--8-|---6--6---6--6---6--6---6--6-|


    e  e   e  e   e  e   e  e     e H..
|-----------------------------|------------|
|-----------------------------|------------|
|-^10----^10----^10----^10----|-^10--------|
|-^-8----^-8----^-8----^-8----|-^-8--------|
|-----------------------------|------------|
|-----^4-----^4-----^4-----^4-|------------|
|
|   E  E   E  E   E  E   E  E     E H..
|-----------------------------|------------|
|-----------------------------|------------|
|-----------------------------|------------|
|-----------------------------|--11--------|
|-----------------------------|--11--------|
|---4--4---4--4---4--4---4--4-|--11--------|


   Chorus
    A#5                G#5        F#5                G#5
    Gtrs III, IV
     Q    E +S  S  S S E  E S S    Q    E +S  S  S S E  E S S
||------------------------------|-----------------------------|
||o-----------------------------|-----------------------------|
||------------------------------|-----------------------------|
||---8----8-(8)-x--x-x-6--6-x-x-|--4----4-(4)-x--x-x-6--6-x-x-|
||o--8----8-(8)-x--x-x-6--6-x-x-|--4----4-(4)-x--x-x-6--6-x-x-|
||---8----8-(8)-x--x-x-6--6-x-x-|--4----4-(4)-x--x-x-6--6-x-x-|
|
|   Gtr I
|    e E  e  E     e   E  e E      e E  e  E     e   E  e E
||------------------------------|-----------------------------|
||o-----------------------------|-----------------------------|
||--10---10-------10-----10-----|-10---10-------10-----10-----|
||---8----8--------8------8-----|--8----8--------8------8-----|
||o-----------------------------|-----------------------------|
||------------------------------|-----------------------------|


                               1.
  A#5                G#5        F#5                G#5
   Q    E +S  S  S S E  E S S    Q    E +S  S  S S E  E S S
|-----------------------------|------------------------------||
|-----------------------------|-----------------------------o||
|-----------------------------|------------------------------||
|--8----8-(8)-x--x-x-6--6-x-x-|--4----4-(4)-x--x-x-6--6-x-x--||
|--8----8-(8)-x--x-x-6--6-x-x-|--4----4-(4)-x--x-x-6--6-x-x-o||
|--8----8-(8)-x--x-x-6--6-x-x-|--4----4-(4)-x--x-x-6--6-x-x--||
|
|  e E  e  E     e   E  e E      e E  e  E     e   E  e E
|-----------------------------|------------------------------||
|-----------------------------|-----------------------------o||
|-10---10-------10-----10-----|-10---10-------10-----10------||
|--8----8--------8------8-----|--8----8--------8------8------||
|-----------------------------|-----------------------------o||
|-----------------------------|------------------------------||


 Interlude
  2.
  D#5              A#5
  Gtr III          Gtr I
   W                 e  e   e  e   e  e   e  e     e  e   e  e   e  e   e  e
|----------------|-----------------------------|-----------------------------|
|----------------|-----------------------------|-----------------------------|
|-^3-------------|-^10----^10----^10----^10----|-^10----^10----^10----^10----|
|-^1-------------|-^-8----^-8----^-8----^-8----|-^-8----^-8----^-8----^-8----|
|-^1-------------|-----------------------------|-----------------------------|
|-^1-------------|-----^4-----^4-----^4-----^4-|-----^6-----^6-----^6-----^6-|
|
| Gtr IV
|  Q  Q  Q  +Q       W                             W
|----------------|-----------------------------|-----------------------------|
|----------------|-----------------------------|-----------------------------|
|----------------|-----------------------------|-----------------------------|
|--1--1--1--(1)--|-----------------------------|-----------------------------|
|--1--1--1--(1)--|-----------------------------|-----------------------------|
|--1--1--1--(1)--|-----------------------------|-----------------------------|


    e  e   e  e   e  e   e  e     e  e   e  e   e  e   e  e
|-----------------------------|------------------------------|
|-----------------------------|------------------------------|
|-^10----^10----^10----^10----|-^10----^10----^10----^10-----|
|-^-8----^-8----^-8----^-8----|-^-8----^-8----^-8----^-8-----|
|-----------------------------|------------------------------|
|-----^4-----^4-----^4-----^4-|-----^8-----^8-----^6-----^6--|
|
|   W                             W
|-----------------------------|------------------------------|
|-----------------------------|------------------------------|
|-----------------------------|------------------------------|
|-----------------------------|------------------------------|
|-----------------------------|------------------------------|
|-----------------------------|------------------------------|


  A#5
    e   e   e   e       e       e   e       e          e   e   e   e       e       e   e       e
|--------------------------------------------------|--------------------------------------------------|
|--------------------------------------------------|--------------------------------------------------|
|-^10-----^10---------^10---------^10--------------|-^10-----^10---------^10---------^10--------------|
|-^-8-----^-8---------^-8---------^-8--------------|-^-8-----^-8---------^-8---------^-8--------------|
|--------------------------------------------------|--------------------------------------------------|
|------^4-----^-4--------------^4----------^4------|------^6-----^-6--------------^6----------^6------|
|
| Gtr V
|   Q.         +X   E      +Q          E..     +X      Q.         +X   E      +Q          E..     +X
|--18---------(18)-16-----(16)--------13------(13)-|--21---------(21)-20-----(20)--------16------(16)-|
|--------------------------------------------------|--------------------------------------------------|
|--------------------------------------------------|--------------------------------------------------|
|--------------------------------------------------|--------------------------------------------------|
|--------------------------------------------------|--------------------------------------------------|
|--------------------------------------------------|--------------------------------------------------|


    e   e   e   e       e       e   e       e          e  e   e  e   e  e   e  e
|--------------------------------------------------|------------------------------|
|--------------------------------------------------|------------------------------|
|-^10-----^10---------^10---------^10--------------|-^10----^10----^10----^10-----|
|-^-8-----^-8---------^-8---------^-8--------------|-^-8----^-8----^-8----^-8-----|
|--------------------------------------------------|-------------------^3-----^8--|
|------^4-----^-4--------------^4----------^4------|-----^3-----^6----------------|
|
|   Q.         +X   E      +Q          E..     +X      Q      Q      Q      Q
|--18---------(18)-16-----(16)--------13------(13)-|--16-----16-----21-----25-----|
|--------------------------------------------------|--11-----11-----11-----11-----|
|--------------------------------------------------|------------------------------|
|--------------------------------------------------|------------------------------|
|--------------------------------------------------|------------------------------|
|--------------------------------------------------|------------------------------|


 Out-Chorus
  A#5                G#5        F#5                G#5
  Gtrs III, IV
   Q    E +S  S  S S E  E S S    Q    E +S  S  S S E  E S S
|-----------------------------|-----------------------------|
|-----------------------------|-----------------------------|
|-----------------------------|-----------------------------|
|--8----8-(8)-x--x-x-6--6-x-x-|--4----4-(4)-x--x-x-6--6-x-x-|
|--8----8-(8)-x--x-x-6--6-x-x-|--4----4-(4)-x--x-x-6--6-x-x-|
|--8----8-(8)-x--x-x-6--6-x-x-|--4----4-(4)-x--x-x-6--6-x-x-|
|
| Gtr I
|  e E  e  E     e   E  e E      e E  e  E     e   E  e E
|-----------------------------|-----------------------------|
|-----------------------------|-----------------------------|
|-10---10-------10-----10-----|-10---10-------10-----10-----|
|--8----8--------8------8-----|--8----8--------8------8-----|
|-----------------------------|-----------------------------|
|-----------------------------|-----------------------------|


  A#5                G#5        F#5
   Q    E +S  S  S S E  E S S    E H..
|-----------------------------|-----------|
|-----------------------------|-----------|
|-----------------------------|-----------|
|--8----8-(8)-x--x-x-6--6-x-x-|--4--------|
|--8----8-(8)-x--x-x-6--6-x-x-|--4--------|
|--8----8-(8)-x--x-x-6--6-x-x-|--4--------|
|
|  e E  e  E     e   E  e E      e H..
|-----------------------------|-----------|
|-----------------------------|-----------|
|-10---10-------10-----10-----|-10--------|
|--8----8--------8------8-----|--8--------|
|-----------------------------|-----------|
|-----------------------------|-----------|


  A#5                G#5        F#5                G#5
   Q    E +S  S  S S E  E S S    Q    E +S  S  S S E  E S S
|-----------------------------|-----------------------------|
|-----------------------------|-----------------------------|
|-----------------------------|-----------------------------|
|--8----8-(8)-x--x-x-6--6-x-x-|--4----4-(4)-x--x-x-6--6-x-x-|
|--8----8-(8)-x--x-x-6--6-x-x-|--4----4-(4)-x--x-x-6--6-x-x-|
|--8----8-(8)-x--x-x-6--6-x-x-|--4----4-(4)-x--x-x-6--6-x-x-|
|
|  e E  e  E     e   E  e E      e E  e  E     e   E  e E
|-----------------------------|-----------------------------|
|-----------------------------|-----------------------------|
|-10---10-------10-----10-----|-10---10-------10-----10-----|
|--8----8--------8------8-----|--8----8--------8------8-----|
|-----------------------------|-----------------------------|
|-----------------------------|-----------------------------|


  A#5                G#5        F#5                G#5
   Q    E +S  S  S S E  E S S    Q    E +S  S  S S E  E S S
|-----------------------------|------------------------------|
|-----------------------------|------------------------------|
|-----------------------------|------------------------------|
|--8----8-(8)-x--x-x-6--6-x-x-|--4----4-(4)-x--x-x-6--6-x-x--|
|--8----8-(8)-x--x-x-6--6-x-x-|--4----4-(4)-x--x-x-6--6-x-x--|
|--8----8-(8)-x--x-x-6--6-x-x-|--4----4-(4)-x--x-x-6--6-x-x--|
|
|  e E  e  E     e   E  e E      e E  e  E     e   E  e E
|-----------------------------|------------------------------|
|-----------------------------|------------------------------|
|-10---10-------10-----10-----|-10---10-------10-----10------|
|--8----8--------8------8-----|--8----8--------8------8------|
|-----------------------------|------------------------------|
|-----------------------------|------------------------------|


  A#5                G#5        D#5
                                Gtr IV
   Q    E +S  S  S S E  E S S    Q     Q    Q   +Q
|-----------------------------|----------------------|
|-----------------------------|----------------------|
|-----------------------------|----------------------|
|--8----8-(8)-x--x-x-6--6-x-x-|--1-----1----1---(1)--|
|--8----8-(8)-x--x-x-6--6-x-x-|--1-----1----1---(1)--|
|--8----8-(8)-x--x-x-6--6-x-x-|--1-----1----1---(1)--|
|
|  e E  e  E     e   E  e E      e H..
|-----------------------------|----------------------|
|-----------------------------|----------------------|
|-10---10-------10-----10-----|-10-------------------|
|--8----8--------8------8-----|--8-------------------|
|-----------------------------|----------------------|
|-----------------------------|----------------------|
|
|                               Gtr III
|                                           ~~~~
|  W                             H         +H
|-----------------------------|----------------------|
|-----------------------------|----------------------|
|-----------------------------|-^3--------^(3)-------|
|-----------------------------|-^1--------^(1)-------|
|-----------------------------|-^1--------^(1)-------|
|-----------------------------|-^1--------^(1)-------|


  A#5                G#5        F#5                 G#5
  Gtrs III, IV
   Q    E +S  S  S S E  E S S    Q     E +S  S  S S  E  E S S
|-----------------------------|--------------------------------|
|-----------------------------|--------------------------------|
|-----------------------------|--------------------------------|
|--8----8-(8)-x--x-x-6--6-x-x-|--4-----4-(4)-x--x-x--6--6-x-x--|
|--8----8-(8)-x--x-x-6--6-x-x-|--4-----4-(4)-x--x-x--6--6-x-x--|
|--8----8-(8)-x--x-x-6--6-x-x-|--4-----4-(4)-x--x-x--6--6-x-x--|
|
|  e E  e  E     e   E  e E      e  E  e  E     e    E  e E
|-----------------------------|--------------------------------|
|-----------------------------|--------------------------------|
|-10---10-------10-----10-----|-10----10-------10------10------|
|--8----8--------8------8-----|--8-----8--------8-------8------|
|-----------------------------|--------------------------------|
|-----------------------------|--------------------------------|
|
| Gtr V
|  W                             H.                  Q
|-18--------------------------|-18------------------16---------|
|-----------------------------|--------------------------------|
|-----------------------------|--------------------------------|
|-----------------------------|--------------------------------|
|-----------------------------|--------------------------------|
|-----------------------------|--------------------------------|


  A#5                G#5        F#5                 G#5
   Q    E +S  S  S S E  E S S    Q     E +S  S  S S E  E S S
|-----------------------------|------------------------------|
|-----------------------------|------------------------------|
|-----------------------------|------------------------------|
|--8----8-(8)-x--x-x-6--6-x-x-|--4-----4-(4)-x--x-x-6--6-x-x-|
|--8----8-(8)-x--x-x-6--6-x-x-|--4-----4-(4)-x--x-x-6--6-x-x-|
|--8----8-(8)-x--x-x-6--6-x-x-|--4-----4-(4)-x--x-x-6--6-x-x-|
|
|  e E  e  E     e   E  e E      e  E  e  E     e   E  e E
|-----------------------------|------------------------------|
|-----------------------------|------------------------------|
|-10---10-------10-----10-----|-10----10-------10-----10-----|
|--8----8--------8------8-----|--8-----8--------8------8-----|
|-----------------------------|------------------------------|
|-----------------------------|------------------------------|
|
|  W                             H.                    Q
|-18--------------------------|-18--------------------16-----|
|-----------------------------|------------------------------|
|-----------------------------|------------------------------|
|-----------------------------|------------------------------|
|-----------------------------|------------------------------|
|-----------------------------|------------------------------|


  A#5                G#5        F#5                 G#5
   Q    E +S  S  S S E  E S S    Q     E +S  S  S S E  E S S
|-----------------------------|-------------------------------|
|-----------------------------|-------------------------------|
|-----------------------------|-------------------------------|
|--8----8-(8)-x--x-x-6--6-x-x-|--4-----4-(4)-x--x-x-6--6-x-x--|
|--8----8-(8)-x--x-x-6--6-x-x-|--4-----4-(4)-x--x-x-6--6-x-x--|
|--8----8-(8)-x--x-x-6--6-x-x-|--4-----4-(4)-x--x-x-6--6-x-x--|
|
|  e E  e  E     e   E  e E      e  E  e  E     e   E  e E
|-----------------------------|-------------------------------|
|-----------------------------|-------------------------------|
|-10---10-------10-----10-----|-10----10-------10-----10------|
|--8----8--------8------8-----|--8-----8--------8------8------|
|-----------------------------|-------------------------------|
|-----------------------------|-------------------------------|
|
|  W                             H.                    Q
|-18--------------------------|-18--------------------16------|
|-----------------------------|-------------------------------|
|-----------------------------|-------------------------------|
|-----------------------------|-------------------------------|
|-----------------------------|-------------------------------|
|-----------------------------|-------------------------------|


  A#5                G#5        D#5
   Q    E +S  S  S S E  E S S     W            +W            +W
|-----------------------------|-------------|-------------|---------*|
|-----------------------------|-------------|-------------|---------*|
|-----------------------------|-^-3---------|-^(3)--------|-^(3)----*|
|--8----8-(8)-x--x-x-6--6-x-x-|-^-1---------|-^(1)--------|-^(1)----*|
|--8----8-(8)-x--x-x-6--6-x-x-|-^-1---------|-^(1)--------|-^(1)----*|
|--8----8-(8)-x--x-x-6--6-x-x-|-^-1---------|-^(1)--------|-^(1)----*|
|
|  e E  e  E     e   E  e E       W             W             W
|-----------------------------|-------------|-------------|---------*|
|-----------------------------|-------------|-------------|---------*|
|-10---10-------10-----10-----|-------------|-------------|---------*|
|--8----8--------8------8-----|-------------|-------------|---------*|
|-----------------------------|-------------|-------------|---------*|
|-----------------------------|-------------|-------------|---------*|
|
|  W                             +W             W             W
|-18--------------------------|-(18)--------|-------------|---------*|
|-----------------------------|-------------|-------------|---------*|
|-----------------------------|-------------|-------------|---------*|
|-----------------------------|-------------|-------------|---------*|
|-----------------------------|-------------|-------------|---------*|
|-----------------------------|-------------|-------------|---------*|



Tap to rate this tab
 
# A B C D E F G H I J K L M N O P Q R S T U V W X Y Z