Guitaretab - guitar tabs
Song name
# A B C D E F G H I J K L M N O P Q R S T U V W X Y Z

Gorgoroth - Sign Of An Open Eye tab

Here's is my attempt at Gorgoroth's "Sign of An Open Eye"
it's pretty sure it's not right but it's a decent way to play it, so yeah im just sharing

It's my first tab ever, so don't critcize me!! >:(

(All Fills are after the Main Riff) (obviously)


C Standard

(High To Low)
  
C Gb B E Ab Db

 
Intro

Sign of An Open Eye - Gorgoroth

|----------------------------------|
|-0~-------------------------------|
|-X~-------------------------------|
|-2~--2----------------------------|
|-2~--2-2-2-2-2-2-2-2-2-2-2-2-2-2--|
|-0~--0-0-0-0-0-0-0-0-0-0-0-0-0-0--| Main Riff (i'm not totally sure if all notes are there)

[ Tab from: http://www.guitaretab.com/g/gorgoroth/189883.html ]
|-----------------|
|-----------------|
|-----------------|
|-3-3-3-3-3-3-3-3-|
|-3-3-3-3-3-3-3-3-|
|-1-1-1-1-1-1-1-1-|  Fill 1


|-------------|
|-------------|
|-------------|
|-------------|
|-2-2-2-2-2-2-| 
|-4-4-4-4-4-4-| Fill 2


Play "Fill 1" here


|-------------|
|-------------|
|-------------|
|-5-5-5-------|
|-5-5-5-3-3-3-|
|-3-3-3-5-5-5-| Fill 3


Play "Fill 1" here


Play "Fill 2" here


Play "Fill 1" here


|---------------------|
|---------------------|
|---------------------|
|-5-5-5-5-4-4-4-3-3-3-|
|-5-5-5-5-4-4-4-3-3-3-|
|-3-3-3-3-2-2-2-1-1-1-| Fill 4


Play "Fill 1" here


Play "Fill 2" here



And that's all i figured out for now, I'll try tab the rest out when i have time.



HAIL GORGOROTH!!! \m/_ (-_-) _\m/



P.S ALSO IF YOU WANT THE TAB FOR "Carving A Giant" AND "Incipit Satan" VOTE FOR IT!!
Related for Sign Of An Open Eye tab
×
Best way to learn
"Sign Of An Open Eye"