Guitaretab - guitar tabs
Song name
# A B C D E F G H I J K L M N O P Q R S T U V W X Y Z

Gorillaz - All Alone tab

Gorillaz
All Alone
Tabbed by Ryan.c

this has to be the best riff on the album. may be wrong in some places so 
you send your suggestions to chhang7@hotmail.com



Main Riff
|-----------------------------------------------|
|-----------------------------------------------|
|-----9-8-7------------7-------7-6-5--4-4-4-5-7-|
|-7-7-------10-7-7-10------5-5------------------|
|-----------------------------------------------|
|-----------------------------------------------|


middle 
|------------------------------|
|------------------------------|(you may want to change some of the pull ups to slides)
|-14p12-14p12-12---------------|
|----------------12--12/14-----|
|------------------------------|
|------------------------------|
[ Tab from: http://www.guitaretab.com/g/gorillaz/138274.html ]
|--------------------------------------------------------|
|--------------------------------------------------------|
|--14p12-14p12-12-------------------------------9b-9b-9b-|
|-----------------12h14-12h14-10-10h12-10h12-9-----------|
|--------------------------------------------------------|
|--------------------------------------------------------|

|------------------------------|
|------------------------------|
|-14p12-14p12-12---------------|
|----------------12--12/14-----|
|------------------------------|
|------------------------------|

End 
|---------------------------------------------------------------------|
|---------------------------------------------------------------------|
|-14p12-14p12-12----------------------14p12-14p12-12--14p12-14p12-14--|
|----------------12--12/14\12/14--14----------------------------------|
|---------------------------------------------------------------------|
|---------------------------------------------------------------------|

|-------------------------------------|
|-------------------------------------|
|-14p12-14p12-12----------------------|
|----------------12--12p10-12p10-10---|
|-------------------------------------|
|-------------------------------------|
Related for All Alone tab
All Alone chords by Gorillaz