Song name
# A B C D E F G H I J K L M N O P Q R S T U V W X Y Z

Gorillaz - Hong Kong tab

e----3-3--3-3--3-3--3---2-2--2-2--2-2--2------|
b-----3----3----3----3---2----2----2----2-----|
g---------------------------------------------|
d---------------------------------------------|
a--2----2----2----2----0----0----0----0-------|
E---------------------------------------------|
                                   repeat 9 more times

e----5-5--5-5--5-5--5---3-3--3-3--3-3--3------|
b-----5----5----5----5---3----3----3----3-----|
g---------------------------------------------|
d---------------------------------------------|
a--4----4----3----3----2----2----2----2-------|
E---------------------------------------------|


e----0-0--0-0--0-0--0---2-2--2-2--2-2--2------|
b-----0----0----0----0---2----2----2----2-----|
g---------------------------------------------|
d---------------------------------------------|
a----------------------0----0----0----0-------|
E--3----3----3----3---------------------------|
                                           repeat

e----3-3--3-3--3-3--3---2-2--2-2--2-2--2------|
b-----3----3----3----3---2----2----2----2-----|
g---------------------------------------------|
d---------------------------------------------|
a--2----2----2----2----0----0----0----0-------|
E---------------------------------------------|


e----5-5--5-5--5-5--5---3-3--3-3--3-3--3------|
b-----5----5----5----5---3----3----3----3-----|
g---------------------------------------------|
d---------------------------------------------|
a--4----4----3----3----2----2----2----2-------|
E---------------------------------------------|

e----0-0--0-0--0-0--0---2-2--2-2--2-2--2-2----|
g-----0----0----0----0---2----2----2----2-----|
d---------------------------------------------|
a----------------------0----0----0----0-------|
E--3----3----3----3---------------------------|
                                       repeat

e----3-3--3-3--3-3--3---2-2--2-2--2-2--2------|
b-----3----3----3----3---2----2----2----2-----|
g---------------------------------------------|
d---------------------------------------------|
a--2----2----2----2----0----0----0----0-------|
E---------------------------------------------|
                                   repeat  3 more times

rif #4
e----8-8--8-8--8-8--8---7-7--7-7--7-7--7------|
b-----8----8----8----8---7----7----7----7-----|
g---------------------------------------------|
d---------------------------------------------|
a--7----7----7----7----5----5----5----5-------|
E---------------------------------------------|

e----5-5--5-5--5-5--5---5-5--5-5--5-5--5------|
b-----5----5----5----5---5----5----5----5-----|
g---------------------------------------------|
d--4---4----4----4-----3----3----3----3-------|
E---------------------------------------------|
                                     repeat rif #4

e----5-5--5-5--5-5--5---5-5--5-5--5-5--5------|
b-----5----5----5----5---5----5----5----5-----|
g---------------------------------------------|
d---------------------------------------------|
a--4----4----4----4----3----3----3----3-------|
E---------------------------------------------|

e----3-3--3-3--3-3--3---2-2--2-2--2-2--2------|
b-----3----3----3----3---2----2----2----2-----|
g---------------------------------------------|
d---------------------------------------------|
a--2----2----2----2----0----0----0----0-------|
E---------------------------------------------|
                           repeat 2 more times

e----5-5--5----5-5--5---3-3--3-3--3-3--3------|
b-----5----5----5----5---3----3----3----3-----|
g---------------------------------------------|
d---------------------------------------------|
a--4----4----3----3----2----2----2----2-------|
E---------------------------------------------|

e----0-0--0-0--0-0--0----2-2--2-2--2-2--2-----|
b-----0----0----0----0----2----2----2----2----|
g---------------------------------------------|
d---------------------------------------------|
a----------------------0----0----0----0-------|
E--3----3----3----3---------------------------|
                                       repeat

e----3-3--3-3--3-3--3----2-2--2-2--2-2--2------|
b-----3----3----3----3----2----2----2----2-----|
g----------------------------------------------|
d----------------------------------------------|
a--2----2----2----2----0----0----0----0--------|
E----------------------------------------------|
                            repeat 3 more times

play rif #4 twice, then
e----5-5--5-5--5-5--5----5-5--5-5--5-5--5----|
b-----5----5----5----5----5----5----5----5---|
g--------------------------------------------|
d--------------------------------------------|
a--4----4----4----4----3----3----3----3------|
E--------------------------------------------|

e----3-3--3-3--3-3--3----2-2--2-2--2-2--2----|
b-----3----3----3----3----2----2----2----2---|
g--------------------------------------------|
d--------------------------------------------|
a--2----2----2----2----0----0----0----0------|
E--------------------------------------------|
                                    repeat 5 more times
Tap to rate this tab
# A B C D E F G H I J K L M N O P Q R S T U V W X Y Z