Song name
# A B C D E F G H I J K L M N O P Q R S T U V W X Y Z

Gossip - Dimestore Diamond tab

Here is the tablature of the end of the song, it is at this moment there that the
guitar begins (2:30)

----------------------------|-------------------------------|
----------------------------|-------------------------------|
----------------------------|-------------------------------|
-------2----------------5---|----------2-----------------5--|
----------------------------|-------------------------------|
--0----------3-3-3-3-3------|---0------------3-3-3-3-3------|


----------------------------|-------------------------------|
----------------------------|-------------------------------|
----------------------------|-------------5-----------------|
-------2----------------5---|-----------------------------7-|
----------------------------|-----3-------------------------|
--0----------3-3-3-3-3------|---------------------5---------|
Tap to rate this tab
# A B C D E F G H I J K L M N O P Q R S T U V W X Y Z