Song name
# A B C D E F G H I J K L M N O P Q R S T U V W X Y Z

Gossip - Pop Goes The World tab

0:07

e|--------------------------------------------------------------------------|
B|----------------9-11-9----------------------------------------------------|
G|------10-10-8-10-------10-10-10-8-10/-------------------------------------|
D|--------------------------------------6h8p6-------------------------------|
A|--6/8---------------------------------------8-----------------------------|
E|--------------------------------------------------------------------------|

0:11

e|--------------------------------------------------|
B|-------------9-11-9-------------------------------|
G|---10-10-8-10-------10-10-10-8-10/----------------| Repeat this main riff
D|-----------------------------------6h8p6----------|
A|-----------------------------------------8--------|
E|--------------------------------------------------|

0:30

e|----------|
B|----10//--|
G|----10//--|
D|----------| x7 Then back to the verse
A|---8------|
E|----------|

0:51 

e|--13-13-13-13-13-13-x-13------------|
B|--13-13-13-13-13-13-x-13--10//-10//-|
G|--13-13-13-13-13-13-x-13--10//-10//-|
D|------------------------------------|
A|------------------------------------|
E|------------------------------------|

1:22

e|---------------------------------------|
B|---------------------------------------|
G|----------------------10-8-------------|
D|-8/10-10-8/10-10-8/10-8--6--10-10------|
A|-6/8--8--6/8--8--6/8--------8--8-------|
E|---------------------------------------|

1:37

e|-14-14-12------14-14-12------14-14-12-------14-14-12--------14-14-12------|
B|---------14-14----------14-14----------14-14----------14-14---------14-14-|
G|--------------------------------------------------------------------------|
D|--------------------------------------------------------------------------|
A|--------------------------------------------------------------------------|
E|--------------------------------------------------------------------------|

1:45

e|----------------------------11-13-13-13-----------------------------------|
B|------9-11-11-11-9-11-11-11-----------------------------------------------|
G|-8--------------------------------------8-10-10-10------------------------|
D|-8-2----------------------------------------------------------------------|
A|-6-2----------------------------------------------------------------------|
E|---0----------------------------------------------------------------------|
Tap to rate this tab
# A B C D E F G H I J K L M N O P Q R S T U V W X Y Z