Song name
# A B C D E F G H I J K L M N O P Q R S T U V W X Y Z

Government Issue - Hall Of Fame tab

-------------------------------------------------------------------------------
                       HALL OF FAME - Government Issue
-------------------------------------------------------------------------------

By: JuiceBoxZero93

e|---------------------------------------------------------------------------|
B|---------------------------------------------------------------------------|
G|---------------------------------------------------------------------------|
D|--7-7-7--4-4-4--5-5-5------------------------------------------------------|
A|--5-5-5--2-2-2--3-3-3--5-5-5-----------------------------------------------|
E|-----------------------3-3-3-----------------------------------------------|

e|---------------------------------------------------------------------------|
B|---------------------------------------------------------------------------|
G|---------------------------------------------------------------------------|
D|--5-5-5-5-5-5-5-5-------------------5--------------------------------------|
A|--3-3-3-3-3-3-3-3--3-3-3-3-3-3-3-3--3--5-5-5-5-----------------------------|
E|-------------------1-1-1-1-1-1-1-1-----3-3-3-3--(demp these last chords!)--|

e|---------------------------------------------------------------------------|
B|---------------------------------------------------------------------------|
G|---------------------------------------------------------------------------|
D|--5-5-5-5-5-5-5-5--------------5-------------------------------------------|
A|--3-3-3-3-3-3-3-3--3-3--5-5-5--3--5-5-5-5------(demp these last chords!)---|
E|-------------------1-1--3-3-3-----3-3-3-3----------------------------------
Tap to rate this tab
# A B C D E F G H I J K L M N O P Q R S T U V W X Y Z