Guitaretab - guitar tabs
Song name
# A B C D E F G H I J K L M N O P Q R S T U V W X Y Z

Grand Funk Railroad - Time Machine tab

-----------------------------------------------------------------
Grand Funk Railroad - Time Machine
-----------------------------------------------------------------
Tabbed by: Jonathan Brashier

alright. since everyone else is to lazy to tab this song i'm going to do it. this is the
first tab i've posted.
all i have is the intro. i'll tab the rest later.
[ Tab from: http://www.guitaretab.com/g/grand-funk-railroad/136427.html ]
Tuning: standard
                                     3x                                               4x
E|---------12--12--12--12-----12\\\------------|--------12----11----10----9----8-------|
B|---------12--12--12--12-----12\\\------------|--------12----11----10----9----8-------|
G|---------12--12--12--12-----12\\\------------|--------12----11----10----9----8-------|
D|---------12--12--12--12-----12\\\------------|--------12----11----10----9----8-------|
A|--14-----------------------------------------|---14----------------------------------|
E|--12-----------------------------------------|---12----------------------------------|


| / slide up
| \ slide down
| h hammer-on
| p pull-off
| ~ vibrato
| + harmonic
| x Mute note
Related for Time Machine tab
Time Machine chords by Grand Funk Railroad