Song name
# A B C D E F G H I J K L M N O P Q R S T U V W X Y Z

Grand Funk Railroad - Were An American Band tab

Hey-
This is my tab and i'm pretty sure its correct
A lot of the other tabs didn't have the end of the intro transcribed, so
i decided to do it.
Well, enjoy!

e----------------------------------------------|
b----------------------------------------------|
g----------------------------------------------|
d---10h12-12-12--10h12-10h12-10h12-10h12-10h12-|
a----------------------------------------------|
e----------------------------------------------|

e---------------------------------------------|
b---------------------------------------------|
g----------12-------------12------------------|
d---12/14----14-12-12h14------14p12-10-10-----|
a---------------------------------------------|
e---------------------------------------------|

e---------------------------------------------------|
b---------------------------------------------------|
g------------------------------------------10h12p10-|
d------10----10-12-10h12-10h12-10h12-10h12----------|
a---------------------------------------------------|
e---------------------------------------------------|

e-------------------------------------------|
b-------------------------------------------|
g-------------10h12p10-10-------------------|
d-12p10-------------------10h12\------------|
a-------12p10-------------------------------|
e-------------------------------------------|

That's the intro solo.
Here are the chords. i like to play the d as an inside-four
chord and the c as a full bar chord
        D                                 C
e|----------------------------------------8--x-8--8---x-8--------|
B|----7-7-7----x--xxx--xx7-7-7-----7-7-7--8--x-8--8---x-8--------|
G|----7-7-7----x--xxx--xx7-7-7-----7-7-7--9--x-9--9---x-9--------|
D|----7-7-7----x--xxx--xx7-7-7-----7-7-7--10-x-10-10--x-10-------|
A|----5-5-5----x--xxx--xx5-5-5-----5-5-5--10-x-10-10--x-10-------|
E|----------------------------------------8--x-8--8---x-8--------|


    F    E   C
e|-----------8--8-------------------------------------|
B|--10---9---8--8-------------------------------------|
G|--10---9---9--9-------------------------------------|
D|--10---9---10-10------------------------------------|
A|--8----7---10-10------------------------------------|
E|-----------8--8-------------------------------------|

And then just repeat that throughout the verse

Bridge (Prechorus)
     D         C         Bb        C
e|-----------------------6-6-6-6---8--8--8--8------------------|
B|---7-7-7-7---5-5-5-5---6-6-6-6---8--8--8--8------------------|
G|---7-7-7-7---5-5-5-5---7-7-7-7---9--9--9--9------------------|
D|---7-7-7-7---5-5-5-5---8-8-8-8---10-10-10-10-----------------| X2
A|---5-5-5-5---3-3-3-3---8-8-8-8---10-10-10-10-----------------|
E|-----------------------6-6-6-6---8--8--8--8------------------|

  Chorus are the same chords as the bridge. I haven't transcribed the solo yet but i'll 
to get it to you soon.
Tap to rate this tab
# A B C D E F G H I J K L M N O P Q R S T U V W X Y Z