Guitaretab - guitar tabs
Song name
# A B C D E F G H I J K L M N O P Q R S T U V W X Y Z

Grave Digger - Rebellion tab

Grave Digger - Rebellion
Tabbed by xxxDexterxxx

Riff A 
E|--------------------------|--------------------------|
B|--------------------------|--------------------------|
G|--------------------------|--------------------------|
D|--------9-----------9-----|--------9-----------9-----|
A|-----7-----7-----7-----7--|-----7-----7-----7-----7--|
E|--0-----------0-----------|--0-----------0-----------|

Riff B                                                   5x
E|---------------------------|---------------------------||
B|---------------------------|---------------------------||
G|*--------------------------|--------------------------*||
D|*-----9-----9-----9-----9--|-----7-----7-----5-----5--*||
A|---7-----7-----7-----7-----|--5-----5-----3-----3------||
E|---------------------------|---------------------------||

                                        C
Riff C
E|--------------------------|-----------0-----------|
B|--------------------------|-----------1----------|
G|--------------------------|-----------0----------|
D|-----9-----9-----9-----9--|-----7-----2----------|
A|--7-----7-----7-----7-----|--5-----5--3----------|
E|--------------------------|----------------------|


Riff D
E|--------------------------|------------------------|
B|--------------------------|------------------------|
G|--------------------------|------------------------|
D|--------------------------|------------------------|
A|--4-4-4-4-----4-4-4-4-----|--4-4-4-4-----5--5------|
E|--2-2-2-2-----2-2-2-2-----|--2-2-2-2-----3--3------|


Riff E 
E|----------------------------------|----------------------------------|
B|----------------------------------|----------------------------------|
G|----------------------------------|----------------------------------|
D|----------------------------------|----------------------------------|
A|----------------------------------|----------------------------------|
E|--0-0-0-0-0-0-0-0-0-0-0-0-0-0-0-0-|--0-0-0-0-0-0-0-0-0-0-0-0-0-0-0-0-|

                                                              
E|----------------------------------|-------------------------------|
A|----------------------------------|-------------------------------|
D|----------------------------------|-------------------------------|
G|----------------------------------|-------------------------------|
B|----------------------------------|------------------5--2--4/5----|
E|--0-0-0-0-0-0-0-0-0-0-0-0-0-0-0-0-|--0-0-0-0-0-0-0-0-3--0--2/3----|

Riff E.1
E|----------------------------------|----------------------------------|
B|----------------------------------|----------------------------------|
G|----------------------------------|----------------------------------|
D|----------------------------------|----------------------------------|
A|----------------------------------|----------------------------------|
E|--0-0-0-0-0-0-0-0-0-0-0-0-0-0-0-0-|--0-0-0-0-0-0-0-0-0-0-0-0-0-0-0-0-|

                                                              
E|----------------------------------|-------------------------------|
A|----------------------------------|-------------------------------|
D|----------------------------------|-------------------------------|
G|----------------------------------|-------------------------------|
B|----------------------------------|------------------4--4-2-------|
E|--0-0-0-0-0-0-0-0-0-0-0-0-0-0-0-0-|--0-0-0-0-0-0-0-0-2--2-0-------|



Pre-Chorus (Riff F)
E|-------------------------|--------------------------|-------------------------|
B|-------------------------|--------------------------|-------------------------|
G|-------------------------|--------------------------|-------------------------|
D|-------------------------|--------------------------|-------------------------|
A|--2--2--5----7------5----|--2--2--5----7---8--7--5--|--2--2--5----7------5----|
E|--0--0--3--0-5---0--3----|--0--0--3--0-5---6--5--3--|--0--0--3--0-5---0--3----|

                                                                     
E|--------------------------|
B|--------------------------|
G|--------------------------|
D|--------------------------|
A|--4-4-4-4-----4-4-4-4-----|
E|--2-2-2-2-----2-2-2-2-----|


CHORUS (3x) (Riff G)
E||--------------------|---------------------||
B||--------------------|---------------------||
G||*-------------------|--7--------5--------*||
D||*--2----------------|--7--------5--------*||
A||---2----------------|--5--------3---------||
E||---0----------------|---------------------||



Solo Rhytim: (Riff H)
E||--------------------|---------------------||
B||--------------------|---------------------||
G||*--9----------------|--7--------5--------*||
D||*--9----------------|--7--------5--------*||
A||---7----------------|--5--------3---------||
E||--------------------|---------------------||

Solo Rhytim 2: (Riff I)
E||--------------------|---------------------||
B||--------------------|---------------------||
G||*--9-9-9-9-9-9------|--7--------5--------*||
D||*--9-9-9-9-9-9------|--7--------5--------*||
A||---7-7-7-7-7-7------|--5--------3---------||
E||--------------------|---------------------||


STRUCTURE:

Riff A (1 time)
Riff B (5 times)
Riff C (1 time)
Riff D (1 time)
Riff E (1 time)
Riff E.1 (1 time)
RIff E (2 times)
Riff E.1 (1 time)
Riff F (1 time)
Riff G (3 times)
Riff H (4 times)
RIff I (4 times)
Riff D (1 time)
----
Repeats from the chorus
[ Tab from: http://www.guitaretab.com/g/grave-digger/25299.html ]
Related for Rebellion tab
×
Rebellion