Song name
# A B C D E F G H I J K L M N O P Q R S T U V W X Y Z

Green Day - My Generation tab

Intro
 G        F        G        F        G (Stop)
|---------------------------------------|
|---------------------------------------|
|---------------------------------------|
|-5-5-5-5--3-3-3-3--5-5-5-5--3-3-3-3--5-|
|-5-5-5-5--3-3-3-3--5-5-5-5--3-3-3-3--5-|
|-3-3-3-3--1-1-1-1--3-3-3-3--1-1-1-1--3-|

Strofa 1 (X4)
  G        F        G(Stop) 
|---------------------|            |
|---------------------|            |
|---------------------|     Lyrics |
|-5-5-5-5--3-3-3-3--5-|            |
|-5-5-5-5--3-3-3-3--5-|            | 
|-3-3-3-3--1-1-1-1--3-|            |


Mini solo Guitar 
Strofa 1 (X1)
Mini solo Drum
Strofa 1 (X1)
"Heineken, Fuck that shit! "  

Intro 2 
 A         G        A        G        A (Stop)
|---------------------------------------|
|---------------------------------------|
|---------------------------------------|
|-7-7-7-7--5-5-5-5--7-7-7-7--5-5-5-5--7-|
|-7-7-7-7--5-5-5-5--7-7-7-7--5-5-5-5--7-|
|-5-5-5-5--3-3-3-3--5-5-5-5--3-3-3-3--5-|

Strofa 2 (X4) 
  A        G        A(Stop)
|---------------------|            |
|---------------------|            |
|---------------------|    Lyrics  |
|-7-7-7-7--5-5-5-5--5-|            |
|-7-7-7-7--5-5-5-5--5-|            | 
|-5-5-5-5--3-3-3-3--7-|            |

Solo (Strofa 2 Backing track) 

Outro (X4)  

        B(Stop)
|------------|
|----7-------|
|-9b11--4----|
|-------4----|
|-------2----|
|------------|


Scaletta

Intro1 X1 
Strofa X4
Mini guitar solo 
Mini drum solo

Intro2 X1 
Strofa2 X4 

Solo 
OutroX4
Tap to rate this tab
# A B C D E F G H I J K L M N O P Q R S T U V W X Y Z