Song name
# A B C D E F G H I J K L M N O P Q R S T U V W X Y Z

Green Day - Brat tab

Help us improve GuitareTab! Take a short survey!
Tabbed by:Sam Champness
Email:
Song:Brat
Tuning:Half Step Down

Intro                 Verse
e|----------------|--|----------------------------------------|
B|----------------|--|----------------------------------------|
G|-5-------777777-|--|------55-------------55--------777x777--|
D|-5-x-5---777777-|--|-55---55-x-555-555---55-x-55---777x777--|
A|-3-x-5-x-555555-|--|-55-x-33-x-555-555-x-33-x-55-x-555x555--|
E|-----3-x--------|--|-33-x------333-333-x------33-x----------|

Chorus
e|------------------------------------------------------------------||-->
B|------------------------------------------------------------------||-->
G|55--------55--------55--------77777777---55--------55-------------||-->
D|55-x-55---55-x-55---55-x-55---77777777-x-55-x-55---55-x-55---3333-||-->
A|33-x-55-x-33-x-55-x-33-x-55-x-55555555-x-33-x-55-x-33-x-55-x-3333-||-->
E|-----33-x------33-x------33-x-----------------33-x------33-x-1111-||-->

-->|e|-----------||----|
-->|B|-----------||----|
-->|G|-----------||----|
-->|D|-777777777-||-77-|
-->|A|-777777777-||-77-|
-->|E|-555555555-||-55-|
    Pm__________ 
    
Bridge
e|----------------------------------------|
B|----------------------------------------|
G|-----55-------------55--------777x777---|
D|55---55-x-555-555---55-x-55---777x777---|
A|55-x-33-x-555-555-x-33-x-55-x-555x555---|
E|33-x------333-333-x------33-x-----------|


| /  slide up
| \  slide down
| h  hammer-on
| p  pull-off
| ~  vibrato
| +  harmonic
| x  Mute note
=============================================================================
Related for Brat tab