Song name
# A B C D E F G H I J K L M N O P Q R S T U V W X Y Z

Green Day - J A R tab

        VERSE
e|------------------------------------------------------------------|
B|------------------------------------------------------------------|
G|---7-----------------------------------777------------------------|
D|---7-7------5-5-555X-7-7-777X--5-5-555-777-777--------------------|
A|---5-7------5-5-555X-7-7-777X--5-5-555-555-777--------------------|
E|-----5------3-3-333X-5-5-555X--3-3-333-----555--------------------|

         CHORUS
e|------------------------------------------------------------------|
B|------------------------------------------------------------------|
G|--------------7777777777------------------------------------------|
D|---5555555555-7777777777-7777777777-------------------------------|
A|---5555555555-5555555555-7777777777-------------------------------|
E|---3333333333------------5555555555-------------------------------|

       OUTRO
e|------------------------------------------------------------------|
B|------------------------------------------------------------------|
G|--------7-XX------7-----------------------------------------------|
D|---5-XX-7-XX-7-XX-7-7---------------------------------------------|
A|---5-XX-5-XX-7-XX-5-7---------------------------------------------|
E|---3-XX------5-XX---5---------------------------------------------|

     SOLO -(Over verse)
e|--------------7-5-7-5---------------------------------------------|
B|---8-8-8888-7---------(x2)--8888-7-5-7-5b-------------------------|
G|------------------------------------------7-----------------------|
D|------------------------------------------------------------------|
A|------------------------------------------------------------------|
E|------------------------------------------------------------------|
Tap to rate this tab
 
# A B C D E F G H I J K L M N O P Q R S T U V W X Y Z