Guitaretab - guitar tabs
Song name
# A B C D E F G H I J K L M N O P Q R S T U V W X Y Z

Grinspoon - Just Ace tab

this is my just ace tab its correct i think!


intro
e-3-0------023-0--------3-0------023-0------023-0------03-|
b--3-0-0013---3-0-0010---3-0-0013---3-0-0013---3-0-0013---|
g---------------------20----------------------------------|
d---------------------------------------------------------|
a---------------------------------------------------------|
e---------------------------------------------------------|


verse 1
instead i had a good day
e------------------------------------------------------------|
b------------------------------------------------------------|
g------7777-9999-5555----------------------------------------| x5
d-5555-7777-9999-5555----------------------------------------|
a-5555-5555-7777-3333----------------------------------------|
e-3333-------------------------------------------------------|

[ Tab from: http://www.guitaretab.com/g/grinspoon/7510.html ]
riff
e-3-0------023-0--------3-0------023-0------023-0------03-|
b--3-0-0013---3-0-0010---3-0-0013---3-0-0013---3-0-0013---|
g---------------------20----------------------------------|
d---------------------------------------------------------|
a---------------------------------------------------------|
e---------------------------------------------------------|

verse 2
e------------------------------------------------------------|
b------------------------------------------------------------|
g------7777-9999-5555----------------------------------------| x5
d-5555-7777-9999-5555----------------------------------------|
a-5555-5555-7777-3333----------------------------------------|
e-3333-------------------------------------------------------|

thanks all ovre it
e-------------------|
b-------------------|
g----77-999-5555----|  x4
d-55-77-999-5555----|
a-55-55-777-3333----|
e-33----------------|

verse 3
ill know its winter
e------------------------------------------------------------|
b------------------------------------------------------------|
g------7777-9999-5555----------------------------------------| x5
d-5555-7777-9999-5555----------------------------------------|
a-5555-5555-7777-3333----------------------------------------|
e-3333-------------------------------------------------------|

thats all have fun playin
Related for Just Ace tab