Song name
# A B C D E F G H I J K L M N O P Q R S T U V W X Y Z

Grinspoon - Lost Control tab

ok well first you need the tuning in drop D
at the start of this song it makes a weired sound and i dont no how to do it
 h=hammer on


High distortion    (palm muted)
E [---------------------------]
B [---------------------------]
G [---------------------------]
D [--------------------------5]
A [0-0-0-0-0-0-0-0-0-5-4-3-4-5]
D [0-0-0-0-0-0-0-0-0-5-4-3-4-5]
            times 4

E [---------------------------------------------------]
B [---------------------------------------------------]
G [---------------------------------------------------]
D [---------------------------------------------------]
D [0h3---0h3---0h3---0h3------------------------------]
A [0h3---0h3---0h3---0h3-3-4-5-6-3-4-5----------------]
D [0h3---0h3---0h3---0h3-3-4-5-4-3-4-5----------------]
                times 2 and on the last 3-4-5-4-3-4-5-] add a slide
E [---------------------------------------------------]
B [---------------------------------------------------]
G [---------------------------------------------------]
D [---------------------------------------------------]
A [0-12-x-x-x-x-3-x-x-10-10-5-5-5-5-6-5---------------]
D [0-12-x-x-x-x-3-x-x-10-10-5-5-5-5-6-5---------------]
                times 3

-----------------------------------------------------------------]
-----------------------------------------------------------------]
-----------------------------------------------------------------]
-----------------------------------------------------------------]
-3-3-3-3-3-3-3-3-3-3-3-3-3-3-3-3-5-5-5-5-5-5-5-5-5-5-5-5-5-5-5-5-]
-3-3-3-3-3-3-3-3-3-3-3-3-3-3-3-3-5-5-5-5-5-5-5-5-5-5-5-5-5-5-5-5-]

                    then back to the intro
E [---------------------------]
B [---------------------------]
G [---------------------------]
D [--------------------------5]
A [0-0-0-0-0-0-0-0-0-5-4-3-4-5]
D [0-0-0-0-0-0-0-0-0-5-4-3-4-5]
            times 4


E [---------------------------------------------------]
B [---------------------------------------------------]
G [---------------------------------------------------]
D [---------------------------------------------------]
D [0h3---0h3---0h3---0h3------------------------------]
A [0h3---0h3---0h3---0h3-3-4-5-6-3-4-5----------------]
D [0h3---0h3---0h3---0h3-3-4-5-4-3-4-5----------------]
                times 2 and on the last 3-4-5-4-3-4-5-] add a slide


               chors time


E [-------------------------------------]
B [-------------------------------------]
G [-------------------------------------]
D [-------------------------------------]
A [0-12-x-x-x-x-3-x-x-10-10-5-5-5-5-6-5-]
D [0-12-x-x-x-x-3-x-x-10-10-5-5-5-5-6-5-]
                times 3

E [----------------------------------------------------------------]
B [----------------------------------------------------------------]
G [----------------------------------------------------------------]
D [----------------------------------------------------------------]
A [-3-3-3-3-3-3-3-3-3-3-3-3-3-3-3-3-5-5-5-5-5-5-5-5-5-5-5-5-5-5-5-5]
D [-3-3-3-3-3-3-3-3-3-3-3-3-3-3-3-3-5-5-5-5-5-5-5-5-5-5-5-5-5-5-5-5]

        now the bridge


E |-------------------------------------------------------------------------|
B |-------------------------------------------------------------------------|
G |-------------------------------------------------------------------------|
D |-------------------------------5-6-7-------------------5/7---5/7-5/7-----|
A |-------------------------------------------------------3/5---3/5-3/5-----|
D |-----0-0-0-0-0-0-0-0-0-0-0-0-0-------0-0-0-0-0-0-0-0-0-----0-------------|
                               times 4


                     outro same as intro
E [---------------------------]
B [---------------------------]
G [---------------------------]
D [--------------------------5]
A [0-0-0-0-0-0-0-0-0-5-4-3-4-5]
D [0-0-0-0-0-0-0-0-0-5-4-3-4-5]
            times 4
on the last 54345 end with a 0
 then that sound comes in again and it finishes
Tap to rate this tab
 
# A B C D E F G H I J K L M N O P Q R S T U V W X Y Z