Guitaretab - guitar tabs
Song name
# A B C D E F G H I J K L M N O P Q R S T U V W X Y Z

Grinspoon - No Reason tab

Tabbed by: mjwashere2005
Email: juvearesik@hotmail.com

Tuning:
Intro/Chorus Guitar 1 x4
e|---------------------------------------------------------------------------------------|
B|---------------------------------------------------------------------------------------|
G|---6-6---------------------------------------------------------------------------------|
D|---6-6--6-6--7-7--4-242----------------------------------------------------------------|
A|---4-4--6-6--7-7--4-242----------------------------------------------------------------|
E|--------4-4--5-5--2-020----------------------------------------------------------------|

Intro/Chorus Guitar 2 x4
e|---------------------------------------------------------------------------------------|
B|---------------------------------------------------------------------------------------|
G|----6-6--8-8--8b-8b-8-6----------------------------------------------------------------|
D|----6-6--8-8---------------------------------------------------------------------------|
A|----4-4--6-6---------------------------------------------------------------------------|
E|---------------------------------------------------------------------------------------|

Verse - Guitar 1
e|---------------------------------------------------------------------------------------|
B|---------------------------------------------------------------------------------------|
G|---------------------------------------------------------------------------------------|
D|---------------------------------------------------------------------------------------|
A|---------------------------------------------------------------------------------------|
E|--0-0-2-3-4-------------------0-0-2-3-4------------------------------------------------|

Verse - Guitar 1 (clean) x2
e|-0-----------4--x-x--4----4----5--5---------------|
B|---0---------4--x-x--4h5--5----5----5-------------|
G|-------------5--x-x--4h6--6----6------------------|
D|-------6-6---6--x-x--4h6--6----7------------------|
A|-------6-6---6--x-x--4----4----7------------------|
E|-------4-4---4--x-x------------5------------------|
[ Tab from: http://www.guitaretab.com/g/grinspoon/23605.html ]
Verse part 2 - Guitar 1 (clean) x3
e|----------x-x--------4--x-x--4----4---5--5--------|
B|----------x-x--------4--x-x--4h5--5---5----5------|
G|-------1--x-x--------5--x-x--4h6--6---6-----------|
D|-2-2---2--x-x--6-6---6--x-x--4h6--6---7-----------|
A|-2-2---2--x-x--6-6---6--x-x--4----4---7-----------|
E|-0-0---0--x-x--4-4---4--x-x-----------5-----------|

After Chorus Guitar 1
e|--------------------------------------|
B|--------------------------------------|
G|--------------------------------------|
D|---6-6-6-6-6-6-6-6---8-8-8-8-8-8-8-8--|
A|---6-6-6-6-6-6-6-6---8-8-8-8-8-8-8-8--|
E|---4-4-4-4-4-4-4-4---6-6-6-6-6-6-6-6--|

After Chorus Guitar 2
e|------------------------------------|
B|------------------------------------|
G|---6-6-6-6-6-6-6---8-8-8-8-8-8-8-8--|
D|---6-6-6-6-6-6-6---8-8-8-8-8-8-8-8--|
A|---4-4-4-4-4-4-4---6-6-6-6-6-6-6-6--|
E|------------------------------------|

Before the Bridge Both Guitars
e|------------------------------------------|
B|------------------------------------------|
G|----------------------6--6-x--------------|
D|--2--2-2----6--6-6----6--6-x----7---7--7--|
A|--2--2-2----6--6-6----4--4-x----7---7--7--|
E|--0--0-0----4--4-4--------------5---5--5--|

Bridge Guitar 1  (Guitar 2 plays verse)
e|------12-----------12--------------------|
B|---12-----12---12-------12---12--14--12--|
G|-----------------------------------------|
D|-----------------------------------------|
A|-----------------------------------------|
E|-----------------------------------------|

e|--------12-----------12-----------------------------------|
B|---12-------12--12--------12---12---14----12--------------|
G|-----------------------------------------------9-9--------|
D|----------------------------------------------------------|
A|----------------------------------------------------------|
E|----------------------------------------------------------|

After Bridge Both Guitars
e|---------------------------------------------------------------------------------|
B|---------------------------------------------------------------------------------|
G|-----------6---------------------------------------------------------------------|
D|---2---6---6----7----------------------------------------------------------------|
A|---2---6---4----7----------------------------------------------------------------|
E|---0---4--------5----------------------------------------------------------------|

hope u like it especially the guitar 1 intro/chorus ;)
Related for No Reason tab