Song name
# A B C D E F G H I J K L M N O P Q R S T U V W X Y Z

Grinspoon - Minute By Minute tab

Grinspoon
Minute by Minute

Intro
e|----8------------------------------------------------------------|
B|----8------------------------------------------------------------|
G|----0------------------------------------------------------------|
D|----x------------------------------------------------------------|
A|----7------------------------------------------------------------|
E|----8------------------------------------------------------------|

Verse

       "This is a new year lullaby..."
e|---3---5--------7--------10---------3----5----7----5------------------|
B|---3---5--------7--------10---------3----5----7----5------------------|
G|---0---0--------0---------0---------0----0----0----0------------------|
D|---2---4--------6---------9---------2----4----6----4------------------|
A|---3---5--------7--------10---------3----5----7----5------------------|
E|----------------------------------------------------------------------|

Chorus
     "Minute by minute..."
e|----0----0----3----2----3---------------0----0----3---2---0---2----|
B|----1----0----3----3----3---------------1----0----3---3---2---3----|
G|----0----0----2----3----0---------------0----0----2---2---3---2----|
D|----2----2----0----0----0---------------2----2----0---0---0---0----|
A|----3----2--------------2---0--2--3-----3----2---------------------|
E|---------0--------------3--------------------0---------------------|


    "Two packs a day..."
e|--0---0---0---------------------------------------------------------|
B|--3---3---2---------------------------------------------------------|
G|--2---2---2---------------------------------------------------------|
D|--0---2---2---------------------------------------------------------|
A|--0---0---0---------------------------------------------------------|
E|--2-----------------------------------------------------------------|


Bridge
 after he sings "two packs a day" play this a few times
e|--0---0---0---3---5-----------------------------------------------------|
B|--3---3---2---3---5-----------------------------------------------------|
G|--2---2---2---0---0-----------------------------------------------------|
D|--0---2---2---2---4-----------------------------------------------------|
A|--0---0---0---3---5-----------------------------------------------------|
E|--2---------------------------------------------------------------------|

after the last chorus end with

e|---3--3--3---0-------------------------------------------------------|
B|---3--3--3---0-------------------------------------------------------|
G|---0--0--0---0-------------------------------------------------------|
D|---2--0--0---2-------------------------------------------------------|
A|---3--2--x---2-------------------------------------------------------|
E|---------3---0-------------------------------------------------------|

PLay
intro
verse
chorus
verse
chorus
bridge
verse
chorusx2
and you're done!

Corrections or comments to jarryd_h@hotmail.com
Tap to rate this tab
 
# A B C D E F G H I J K L M N O P Q R S T U V W X Y Z