Guitaretab - guitar tabs
Song name
# A B C D E F G H I J K L M N O P Q R S T U V W X Y Z

Grinspoon - Make It Happen tab

Australia
Artist : Grinspoon
Song : Make It Happen
Album : New Detention
Instrument : Guitar

Tuning DADGB

*You can figure out the struming parts i just tabbed the basic bits.

Intro

|-----|-------------------------------------------------------|
|-----|----10-10-10-10----------------------------------------|
|-----|----10-10-10-10----------------------------------------|
|---2-|----10-10-10-10--etc-----------------------------------|
|---2-|----0--0--0--0--------slide--12/6----------------------|
|---2-|----0--0--0--0---------------12/6----------------------|

|------------------------------------------------------------|
|-Play-Fast--------------------------------------------------|
|------------------------------------------------------------|
|---0-3---5--7-----0-3--5--0-3--5--7--0-3--5-----------------|
|---0-3---5--7-----0-3--5--0-3--5--7--0-3--5-----------------|
|---0-3---5--7-----0-3--5--0-3--5--7--0-3--5-----------------|

|------------------------------------------------------------|
|-Palm-Mute--------------------------------------------------|
|------------------------------------------------------------|
|---0-3---5--7-----0-3--5--0-3--5--7--0-3--5-----------------|
|---0-3---5--7-----0-3--5--0-3--5--7--0-3--5-----------------|
|---0-3---5--7-----0-3--5--0-3--5--7--0-3--5-----------------|

|------------------------------------------------------------|
|-Play-Fast--------------------------------------------------|
|------------------------------------------------------------|
|---0-3---5--7-----0-3--5--0-3--5--7--0-3--5-----------------|
|---0-3---5--7-----0-3--5--0-3--5--7--0-3--5-----------------|
|---0-3---5--7-----0-3--5--0-3--5--7--0-3--5-----------------|
[ Tab from: http://www.guitaretab.com/g/grinspoon/163314.html ]
|------------------------------------------------------------|
|-Palm-Mute--------------------------------------------------|
|------------------------------------------------------------|
|---0-3---5--7-----0-3--5--0-3--5--7--0-3--5-----------------|
|---0-3---5--7-----0-3--5--0-3--5--7--0-3--5-----------------|
|---0-3---5--7-----0-3--5--0-3--5--7--0-3--5-----------------|

Verse

|------------------------------------------------------------|
|--------10-10-10-10-----------------------------------------|
|--------10-10-10-10-----------------------------------------|
|--------10-10-10-10--etc------------------------------------|
|--------0--0--0--0--------slide--12/6-----------------------|
|--------0--0--0--0---------------12/6-----------------------|

Chorus

|-----------|---------------------------------|---------------|
|-----------|---------------------------------|---------------|
|-----------|--10-10-10-----------------------|---------------|
|---0--0--0-|--10-10-10-0-5-5-5-3-5-3-5-3--0--|---------------|
|---0--0--0-|--8--8--8--0-5-5-5-3-5-3-5-3--0--|---------------|
|---0--0--0-|-----------0-5-5-5-3-5-3-5-3--0--|---------------|

|--------------------------|----------------------------------|
|--10----------------------|--10--10--------------------------|
|--10----------------------|--10--10--------------------------|
|--10---0-5-5-5---3-3--0-2-|--10--10--------------------------|
|--8----0-5-5-5---3-3--0-2-|--0---10--------------------------|
|-------0-5-5-5---3-3--0-2-|--0---0---------------------------|

All the parts are the same, and the the muting sounds part after the chorus goes:

-----------------------------|-------------------------------|
-----------------------------|-------------------------------|
----3-0-2--7--0-0---3-3-3-3-0|-------------------------------|
----3-0-2--7--0-0---3-3-3-3-0|-------------------------------|
----3-0-2--7--0-0---3-3-3-3-0|-------------------------------|
----3-0-2--7--0-0---3-3-3-3-0|-0-3-5-7-0-3-5-0-3-5-7-0-3--5--|

Pretty much i can do better than this but i could'nt be bothered writing down as simplest
form but you can figure it out.
Related for Make It Happen tab