Song name
# A B C D E F G H I J K L M N O P Q R S T U V W X Y Z

Groovie Ghoulies - Tunnel Of Love chords

Highlighted       Show chord diagrams
----------------------------------------------------------------------------
		   Tunnel of Love - Groovie Ghoulies
----------------------------------------------------------------------------
Tabbed by: adslam3

CHORDS for verses
     E A D G B e
B5:  7 9 9 - - -
E5:  0 2 2 - - -
F#5: 2 4 4 - - - 


INTRO
B5

VERSE 1
B5
I met her at the haunted mansion
B5
She said I looked like Charles Manson
E5
But I persisted though
B5
And won her love you know
F#5
Black clouds floating up above
B5
That haunted house was our tunnel of love

VERSE 2
B5
The first time she sat next to me
B5
She said I looked just like E.T.
E5
The next thing that you know
B5
I was her Romeo
F#5
She finally came around
B5
In that haunted house our love was found


MIDDLE RIFF
(Listen for timing; I tried to get the rhythm. Notice that you're 
simply lifting and replacing your ring finger after a few strums
of a normal power chord.)
e|---------------------------------------------------------------|
B|---------------------------------------------------------------|
G|---------------------------------------------------------------|
D|-9-9-999-9-9-9-9-9-9--9-9-999-9-9-9-9-9-9--9-9-999-9-9-9-9-9-9-|
A|-9-9-999-7-9-7-9-7-9--9-9-999-7-9-7-9-7-9--9-9-999-7-9-7-9-7-9-|
E|-7-7-777-7-7-7-7-7-7--7-7-777-7-7-7-7-7-7--7-7-777-7-7-7-7-7-7-|

e|---------------------------------------------------------------|
B|---------------------------------------------------------------|
G|------------------9-9-999-9-9-9-9-9-9--9-9-999-9-9-9-9---------|
D|-9-9-999-9-9-9-9--9-9-999-7-9-7-9-7-9--9-9-999-7-9-7-9---------|
A|-9-9-999-7-9-7-9--7-7-777-7-7-7-7-7-7--7-7-777-7-7-7-7---------|
E|-7-7-777-7-7-7-7-----------------------------------------------|

e|----------------------------------------------------------------------|
B|----------------------------------------------------------------------|
G|---------------------------------------11-11-111111-11-11-11-11-11-11-|
D|-9-9-999-9-9-9-9-9-9--9-9-999-9-9-9-9--11-11-111111-9--11-9--11-9--11-|
A|-9-9-999-7-9-7-9-7-9--9-9-999-7-9-7-9--9--9--9-9-9--9--9--9--9--9--9--|
E|-7-7-777-7-7-7-7-7-7--7-7-777-7-7-7-7---------------------------------|

e|-------------------------------------------------------------------|
B|-------------------------------------------------------------------|
G|-11-11-111111-11-11-11-11------------------------------------------|
D|-11-11-111111-9--11-9--11-9-9-999-9-9-9-9-9-9--9-9-999-9-9-9-9-9-9-|
A|-9--9--9-9-9--9--9--9--9--9-9-999-7-9-7-9-7-9--9-9-999-7-9-7-9-7-9-|
E|--------------------------7-7-777-7-7-7-7-7-7--7-7-777-7-7-7-7-7-7-|

Now keep strumming the B5 until the song repeats.

Instead of the chords I gave at the top, you could also use the following
if you think it sounds better (riff chords):
     E  A  D  G  B  e
B5:  7  9  9  -  -  -
E5:  -  7  9  9  -  -
F#5: -  9  11 11 -  -

That's it! Enjoy - fun, easy song to play.
Tap to rate this tab
 
# A B C D E F G H I J K L M N O P Q R S T U V W X Y Z