Song name
# A B C D E F G H I J K L M N O P Q R S T U V W X Y Z

Guess Who - No Sugar Tonight tab

This isnt exactly right i know. But its better then the rest. Im working on the rest.

a- Acoustic Guitar
ae- Acoutstic Electric Guitar
e- Electric Guitar


    a   ea ea ea  a   ea ea ea 
e|------5--7--6-------2--5--4--| Repeat this part through the next part
B|-----------------------------| But instead of A|--2---|
G|-----------------------------|                E|----2-|               
D|-----------------------------| Do this for that part A|--4--2-| Get it?
A|--2--------------------------|                       
E|----------------2------------|

    e e e e e e e  e  e  e  e  e
e|--5-7-5-7-5-4-6--12-14-12-14-9-|
B|-------------------------------|
G|-------------------------------|
D|-------------------------------|
A|-------------------------------|
E|-------------------------------|
Tap to rate this tab
# A B C D E F G H I J K L M N O P Q R S T U V W X Y Z