Song name
# A B C D E F G H I J K L M N O P Q R S T U V W X Y Z

Gustavo Santaolalla - Apertura tab

Apertura - Gustavo Santaolalla

Motorcycle Diaries OST



The Guitar chord pogression is as below. 
You Can Rake, Pick and strum.


      Dm     Am     C      Dm

e|----1------0------0------1------|
B|----3------1------1------3------|
G|----2------2------0------2------|
D|----0------2------2------0------|
A|-----------0------3-------------|
E|--------------------------------|

I also incorporate this bass riff.

e|------------------------------------------------|
B|------------------------------------------------|
G|----------2--------------------------------2----|
D|----0--3-------------2----------0----0--3-------|
A|---------------0--3----------2------------------|
E|--------------------------3---------------------|


I don't own a Charango (yet!) and making your guitar sound exacty 
like one is difficult. For this song I tried tuning my guitar as follows
D# G# C# F A# F then placinag a capo on the 11th fret. The 6th string
(lowest) isn't played and with the capo in place leaves the remaing five 
strings tuned as shown below. 


     Dm       Am     C      Dm

e|----1-------0------0------1------|
A|----0-------0------3------0------|
E|----1-------0------0------1------|
C|----2-------0------0------2------|
G|----2-------2-------------2------|



Hope you enjoy it.

Tabbed by Ryan.C

Visit - www.youtube.com/meatstring


Tap to rate this tab
# A B C D E F G H I J K L M N O P Q R S T U V W X Y Z