Song name
# A B C D E F G H I J K L M N O P Q R S T U V W X Y Z

Gustavo Santaolalla - The Path tab

Composer: Gustavo Santaolalla
Song: The Path (A New Beginning)
Album: The Last of Us - Official Videogame Score

Tuning: EADGBE
 ______
|      |
|Chords|
|______|

Bm A Em Bm/A

Later on in the last third

Dm C F#m Dm/C

 _____
|     |
| Tab |
|_____|

-----------------------------------------------------------|
-------5-5-7--------5----------------5-7----7--------------|
-4-6-7------------6---7-6------4-7-4---------7-4---4-7-7-6-|
----------------7------------5-------------------4---------|
-----------------------------------------------------------|
-----------------------------------------------------------|

-----------------------------------------------------------|
-----------------------------------------------------------|
-----4-----------------------4-----------------------------|
-7---------------------------------------------------------|
-----------------------------------------------------------|
-----------------------------------------------------------|

-7-7-7----10-3-0----5-5-5---7-3------5---7-3-----5---7-3---|
-------10-----------------7-----5------7-----5-----7-----5-|
-----------------------------------------------------------|
-----------------------------------------------------------|
-----------------------------------------------------------|
-----------------------------------------------------------|

-----------------------------------------------------------|
-------7-7-9--------7----------------7-9----9--------------|
-6-8-9------------8---9-8------6-9-6---------9-6---6-9-9-8-|
----------------9------------7-------------------6---------|
-----------------------------------------------------------|
-----------------------------------------------------------|

As always open for suggestions.
Tap to rate this tab
# A B C D E F G H I J K L M N O P Q R S T U V W X Y Z