Song name
# A B C D E F G H I J K L M N O P Q R S T U V W X Y Z

Guttermouth - Perfect World tab

Help us improve GuitareTab! Take a short survey!
Verse:
e----------------------------------------------------------------------|
B----------------------------------------------------------------------|
G-----5-5-5-5-5-5-5-5---------------12--9------10-10-10-10-10-10-10-10-|
D-----5-5-5-5-5-5-5-5---------------12--9------10-10-10-10-10-10-10-10-|
A-----3-3-3-3-3-3-3-3---------------10--7------8--8--8--8--8--8--8--8--|
E----------------------------------------------------------------------|

e--------------------------------------------------------------------|
B--------------------------------------------------------------------|
G--5-5-5-5-5-5-5-5-5-5-5-5-5-5-5-5----------------------9-7----------|
D--5-5-5-5-5-5-5-5-5-5-5-5-5-5-5-5-5-5-5-5-5-5-5-5------9-7----------|
A--3-3-3-3-3-3-3-3-3-3-3-3-3-3-3-3-5-5-5-5-5-5-5-5------7-5----------|
E----------------------------------3-3-3-3-3-3-3-3-------------------|

e--------------------------------------------------------------------|
B--------------------------------------------------------------------|
G-----------------5-5-5-5-5-5-5-5----------------------------9-7-----|
D-3-3-3-3-3-3-3-3-5-5-5-5-5-5-5-5-5-5-5-5-5-5-5-5-3-3-3-3----9-7-----|
A-3-3-3-3-3-3-3-3-3-3-3-3-3-3-3-3-5-5-5-5-5-5-5-5-3-3-3-3----7-5-----|
E-1-1-1-1-1-1-1-1-----------------3-3-3-3-3-3-3-3-1-1-1-1------------|

e--------------------|
B--------------------|
G-5-5-5-5-5-5-5-5----|
D-5-5-5-5-5-5-5-5----|
A-3-3-3-3-3-3-3-3----|
E--------------------|

'Chorus':
e------------------------------------------------------------------------|
B------------------------------------------------------------------------|
G-----------------5-5-5-5-5-5-5-5----------------------------------------|
D-3-3-3-3-3-3-3-3-5-5-5-5-5-5-5-5-3-3-3-3-3-3-3-3-5-5-5-5-5-5-5-5---5-4--|
A-3-3-3-3-3-3-3-3-3-3-3-3-3-3-3-3-3-3-3-3-3-3-3-3-5-5-5-5-5-5-5-5---5-4--|
E-1-1-1-1-1-1-1-1-----------------1-1-1-1-1-1-1-1-3-3-3-3-3-3-3-3---3-2--|

e--------------------------------------------------------------------|
B--------------------------------------------------------------------|
G-----------------5-5-5-5-5-5-5-5-----------------5-5-5-5-5-5-5-5----|
D-3-3-3-3-3-3-3-3-5-5-5-5-5-5-5-5-5-5-5-5-5-5-5-5-5-5-5-5-5-5-5-5----|
A-3-3-3-3-3-3-3-3-3-3-3-3-3-3-3-3-5-5-5-5-5-5-5-5-3-3-3-5-3-3-3-3----|
E-1-1-1-1-1-1-1-1-----------------3-3-3-3-3-3-3-3--------------------|

Verse 2 :
e----------------------------------------------------------------------|
B----------------------------------------------------------------------|
G-9-7---5-5-5-5-5-5-5-5----12-9--10-10-10-10-10-10-10-10---------------|
D-9-7---5-5-5-5-5-5-5-5----12-9--10-10-10-10-10-10-10-10---------------|
A-7-5---3-3-3-3-3-3-3-3----10-7--8--8--8--8--8--8--8--8----------------|
E----------------------------------------------------------------------|

e--------------------------------------------------------------------------|
B--------------------------------------------------------------------------|
G-5-5-5-5-5-5-5-5-5-5-5-5-5-5-5-5-------------------9-7--------------------|
D-5-5-5-5-5-5-5-5-5-5-5-5-5-5-5-5-5-5-5-5-5-5-5-5---9-7-3-3-3-3-3-3-3-3----|
A-3-3-3-3-3-3-3-3-3-3-3-3-3-3-3-3-5-5-5-5-5-5-5-5---7-5-3-3-3-3-3-3-3-3----|
E---------------------------------3-3-3-3-3-3-3-3-------1-1-1-1-1-1-1-1----|

e-------------------------------------------------------------------|
B-------------------------------------------------------------------|
G-5-5-5-5-5-5-5-5--------------------------9-7-----5-5-5-5-5-5-5-5--|
D-5-5-5-5-5-5-5-5-5-5-5-5-5-5-5-5-3-3-3-3--9-5-----5-5-5-5-5-5-5-5--|
A-3-3-3-3-3-3-3-3-5-5-5-5-5-5-5-5-3-3-3-3--7-5-----3-3-3-3-3-3-3-3--|
E-----------------3-3-3-3-3-3-3-3-1-1-1-1---------------------------|

'Chorus':
e------------------------------------------------------------------------|
B------------------------------------------------------------------------|
G-----------------5-5-5-5-5-5-5-5----------------------------------------|
D-3-3-3-3-3-3-3-3-5-5-5-5-5-5-5-5-3-3-3-3-3-3-3-3-5-5-5-5-5-5-5-5---5-4--|
A-3-3-3-3-3-3-3-3-3-3-3-3-3-3-3-3-3-3-3-3-3-3-3-3-5-5-5-5-5-5-5-5---5-4--|
E-1-1-1-1-1-1-1-1-----------------1-1-1-1-1-1-1-1-3-3-3-3-3-3-3-3---3-2--|

e--------------------------------------------------------------------|
B--------------------------------------------------------------------|
G-----------------5-5-5-5-5-5-5-5-----------------5-5-5-5-5-5-5-5----|
D-3-3-3-3-3-3-3-3-5-5-5-5-5-5-5-5-5-5-5-5-5-5-5-5-5-5-5-5-5-5-5-5----|
A-3-3-3-3-3-3-3-3-3-3-3-3-3-3-3-3-5-5-5-5-5-5-5-5-3-3-3-5-3-3-3-3----|
E-1-1-1-1-1-1-1-1-----------------3-3-3-3-3-3-3-3--------------------|

Solo (Sorry guys..|Only backing for now):
e----------------------------------------------------------------------|
B----------------------------------------------------------------------|
G-9-7---5-5-5-5-5-5-5-5----12-9--10-10-10-10-10-10-10-10---------------|
D-9-7---5-5-5-5-5-5-5-5----12-9--10-10-10-10-10-10-10-10---------------|
A-7-5---3-3-3-3-3-3-3-3----10-7--8--8--8--8--8--8--8--8----------------|
E----------------------------------------------------------------------|

e--------------------------------------------------------------------------|
B--------------------------------------------------------------------------|
G-5-5-5-5-5-5-5-5-5-5-5-5-5-5-5-5-------------------9-7--------------------|
D-5-5-5-5-5-5-5-5-5-5-5-5-5-5-5-5-5-5-5-5-5-5-5-5---9-7-3-3-3-3-3-3-3-3----|
A-3-3-3-3-3-3-3-3-3-3-3-3-3-3-3-3-5-5-5-5-5-5-5-5---7-5-3-3-3-3-3-3-3-3----|
E---------------------------------3-3-3-3-3-3-3-3-------1-1-1-1-1-1-1-1----|

e-------------------------------------------------------------------|
B-------------------------------------------------------------------|
G-5-5-5-5-5-5-5-5--------------------------9-7-----5-5-5-5-5-5-5-5--|
D-5-5-5-5-5-5-5-5-5-5-5-5-5-5-5-5-3-3-3-3--9-5-----5-5-5-5-5-5-5-5--|
A-3-3-3-3-3-3-3-3-5-5-5-5-5-5-5-5-3-3-3-3--7-5-----3-3-3-3-3-3-3-3--|
E-----------------3-3-3-3-3-3-3-3-1-1-1-1---------------------------|

Chorus:
e------------------------------------------------------------------------|
B------------------------------------------------------------------------|
G-----------------5-5-5-5-5-5-5-5----------------------------------------|
D-3-3-3-3-3-3-3-3-5-5-5-5-5-5-5-5-3-3-3-3-3-3-3-3-5-5-5-5-5-5-5-5---5-4--|
A-3-3-3-3-3-3-3-3-3-3-3-3-3-3-3-3-3-3-3-3-3-3-3-3-5-5-5-5-5-5-5-5---5-4--|
E-1-1-1-1-1-1-1-1-----------------1-1-1-1-1-1-1-1-3-3-3-3-3-3-3-3---3-2--|

e--------------------------------------------------------------------|
B--------------------------------------------------------------------|
G-----------------5-5-5-5-5-5-5-5-----------------5-5-5-5-5-5-5-5----|
D-3-3-3-3-3-3-3-3-5-5-5-5-5-5-5-5-5-5-5-5-5-5-5-5-5-5-5-5-5-5-5-5----|
A-3-3-3-3-3-3-3-3-3-3-3-3-3-3-3-3-5-5-5-5-5-5-5-5-3-3-3-5-3-3-3-3----|
E-1-1-1-1-1-1-1-1-----------------3-3-3-3-3-3-3-3--------------------|

Verse:
e----------------------------------------------------------------------|
B----------------------------------------------------------------------|
G-9-7---5-5-5-5-5-5-5-5----12-9--10-10-10-10-10-10-10-10---------------|
D-9-7---5-5-5-5-5-5-5-5----12-9--10-10-10-10-10-10-10-10---------------|
A-7-5---3-3-3-3-3-3-3-3----10-7--8--8--8--8--8--8--8--8----------------|
E----------------------------------------------------------------------|

e--------------------------------------------------------------------------|
B--------------------------------------------------------------------------|
G-5-5-5-5-5-5-5-5-5-5-5-5-5-5-5-5-------------------9-7--------------------|
D-5-5-5-5-5-5-5-5-5-5-5-5-5-5-5-5-5-5-5-5-5-5-5-5---9-7-3-3-3-3-3-3-3-3----|
A-3-3-3-3-3-3-3-3-3-3-3-3-3-3-3-3-5-5-5-5-5-5-5-5---7-5-3-3-3-3-3-3-3-3----|
E---------------------------------3-3-3-3-3-3-3-3-------1-1-1-1-1-1-1-1----|

e-------------------------------------------------------------------|
B-------------------------------------------------------------------|
G-5-5-5-5-5-5-5-5--------------------------9-7-----5-5-5-5-5-5-5-5--|
D-5-5-5-5-5-5-5-5-5-5-5-5-5-5-5-5-3-3-3-3--9-5-----5-5-5-5-5-5-5-5--|
A-3-3-3-3-3-3-3-3-5-5-5-5-5-5-5-5-3-3-3-3--7-5-----3-3-3-3-3-3-3-3--|
E-----------------3-3-3-3-3-3-3-3-1-1-1-1---------------------------|

Outro:
e----------------------------------------------------------|
B----------------------------------------------------------|
G---------------------------9-7---5-5-5-5-5-5-5----5----5\-|
D-5-5-5-5-5-5-5-5-3-3-3-3---9-5---5-5-5-5-5-5-5----5----5\-|
A-5-5-5-5-5-5-5-5-3-3-3-3---7-5---3-3-3-3-3-3-3----3----3\-|
E-3-3-3-3-3-3-3-3-1-1-1-1----------------------------------|

Outro solo:
e-----8-8-------8-8------8------88--------------------------|
B-fb11-----fb11-----fb11   fb11     fb11r 11p8--------------|
G------------------------------------------------10-12V/----|
D-----------------------------------------------------------|
A-----------------------------------------------------------|
E-----------------------------------------------------------|

It's my first tab, and the song is quite easy when you get the hang of it!
Have fun playing!
Guttermouth Rox!
Related for Perfect World tab