Guitaretab - guitar tabs
Song name
# A B C D E F G H I J K L M N O P Q R S T U V W X Y Z

Gwar - Schools Out tab

-------------------------------------------------------------------------------
			    SCHOOL'S OUT - Gwar
-------------------------------------------------------------------------------

Tabbed by: Tyler Greig

Email: gtheleadguitarist@hotmail.com

| /  slide up
| \  slide down
| h  hammer-on
| p  pull-off
| ~  let ring
| *  harmonic
| x  Mute note
| b  bend 
| v  vibrato
| tr trill

Tuning: half step down

I've never learned the Alice Cooper version of this song, so I'm not entirely
sure just how similar the two are. Hopefully this doesn't suck.

Both guitars might not always match up perfectly in the tab, so listen to the 
song. I'm going to try to include as much as possible, without making it too confusing. 

-------------------------------------------

Pre-intro? :P 
 |Guitar 1 (Dip your whammy bar, hit note and raise bar)
e|----/-|
B|---/--|
G|-5*---|
D|------|
A|------|
E|------|
 |Guitar 2 (Same instructions as guitar one)|
e|------|
B|------|
G|------|
D|---/--|
A|--/---|
E|-0----|

INTRO
 |Guitar 1
e|----------------------------------------------------------|
B|----------------------------------------------------------|
G|----------------------------------------------------------|
D|-----7-----5-----7-5------------7h8p7-----5-----7-5-------|
A|-----------------------765----------------------------765-|
E|-0-0---0-0---0-0-----0------0-0-------0-0---0-0-----0-----|
 |Guitar 2                                                  |
e|----------------------------------------------------------|
B|----------------------------------------------------------|
G|----------------------------------------------------------|
D|----------------------------2~----------------------------|
A|----------------------------2~----------------------------|
E|----------------------------0~----------------------------|

 |Guitar 1
e|------------------------------------------------------|
B|------------------------------------------------------|
G|------------------------------------------------------|
D|-----7-----5-----7-5------------7-----5-----7-5-------|
A|-----------------------765------------------------765-|
E|-0-0---0-0---0-0-----0------0-0---0-0---0-0-----0-----|
 |Guitar 2                                              |
e|----------------------------11tr12--------------------|
B|------------------------------------------------------|
G|------------------------------------------------------|
D|-2~---------------------------------------------------|
A|-2~---------------------------------------------------|
E|-0~---------------------------------------------------|

 |Guitar 1
e|---------------------------------------------------|
B|---------------------------------------------------|
G|---------------------------------------------------|
D|-----7-----5-----7-5------------7-----5-----7-5----|
A|-----------------------765-------------------------|
E|-0-0---0-0---0-0-----0------0-0---0-0---0-0--------| 
 |Guitar 2                                           |
e|---------------------------------------------------|
B|---------------------------------------------------|
G|-9999999999999999999999999-------------------------|
D|-xxxxxxxxxxxxxxxxxxxxxxxxx-------------------------|
A|-7777777777777777777777777--5/7---5-7----5/7---5-7-|
E|--------------------------------0-----00-----0-----|
PM                                .     ..     . 

VERSE
 |Guitar 1
e|-----------------------------|
B|-----------------------------|
G|-----14-----12-----14-12-----|
D|-----14-----12-----14-12-----|
A|-----------------------------|
E|-0-0----000----0-0-----------|x4
 |Guitar 2                     |
e|-----------------------------|
B|-----------------------------|
G|-----14-----12-----14-12-----|
D|-----------------------------|
A|-----------------------------|
E|-0-0----000----0-0-------12\-|x4

PRE-CHORUS
 |Both guitars (10s, 12s & 13s, not 0s, 1s, 2s & 3s)
e|-----------------------------------------|
B|-----------------------------------------|
G|-----------------------------------------|
D|-----------------------------------------|
A|-1010-1010-1010-1010-1010-1010-1010-1212-|
E|--8-8--8-8--8-8--8-8--8-8--8-8--8-8-1010-|
PM  . .  . .  . .  . .  . .  . .  . .  . . 
e|--------------------------------------------------|
B|--------------------------------------------------|
G|--------------------------------------------------|
D|--------------------------------------------------|
A|-131313131313131313131313131313131313131313131313-|
E|-111111111111111111111111111111111111111111111111-|
PM ................................................

CHORUS 1
 |Guitar 1
e|----------------------------------------------|
B|----------------------------------------------|
G|----------------------------------------------|
D|-5~---8--10--3-5----5--3-5----5---------------|
A|-5~---8--10--3-5----5--3-5----5---------------|
E|-3~---6---8--1-3--3-3--1-3--3-3---------------|
 PM                 .        .                  |
 |Guitar 2 (w/ wah)                             |
e|----------------------------------------------|
B|----------------------------------------------|
G|----------------------------------------------|
D|------------------/12v-12v-12v-12v-121212-12v-|
A|----------------------------------------------|
E|----------------------------------------------|

 |Guitar 1
e|--------------------------------|
B|--------------------------------|
G|--------------------------------|
D|-5~---8--10--3-5----5--3-5----5-|
A|-5~---8--10--3-5----5--3-5----5-|
E|-3~---6---8--1-3--3-3--1-3--3-3-|
 PM                 .         .   |
 |Guitar 2 (w/ wah)               |
e|--------------------------------|
B|--------------------------------|
G|--------------------------------|
D|------------------/12-10-8v-----|
A|--------------------------------|
E|--------------------------------|
[ Tab from: http://www.guitaretab.com/g/gwar/146886.html ]
 |Guitar 1
e|-----------------------------------------------------|
B|-----------------------------------------------------|
G|-----------------------------------------------------|
D|-5~---8--10--3-5----5--3-5----5----------------------|
A|-5~---8--10--3-5----5--3-5----5----------------------|
E|-3~---6---8--1-3--3-3--1-3--3-3----------------------|
 PM                 .         .                        |
 |Guitar 2 (w/ wah)                                    |
e|------------------15v-15v-1515-15-151515-15v---------|
B|-----------------------------------------------------|
G|-----------------------------------------------------|
D|-----------------------------------------------------|
A|-----------------------------------------------------|
E|-----------------------------------------------------|

"Yeah!"
 |Guitar 1
e|-------------------|
B|-------------------|
G|-------------------|
D|-7~------7~-----3~-|
A|-7~------7~-----3~-|
E|-5~------5~-----1~-|
 |Guitar 2 (w/ wah)  |
e|-------------------|
B|-------------------|
G|----12b~----12b~---|
D|-------------------|
A|-------------------|
E|-------------------|

Bridge 1 ("No more pencils, no more books...")
e|-------------------------------------------|
B|-8-7-5-7--8-7-5-7--12-10-8-10--12-10-8-10--|
G|-------------------------------------------|
D|-------------------------------------------|
A|-------------------------------------------|
E|-------------------------------------------|

Solo (with verse guitar 1 as rhythm)
i DO plan to get this solo done soon. I haven't had time yet, but i WILL tab it in the next week or so.

Play Verse again

CHORUS 2
 |Guitar 1
e|---------------------------------------------|
B|---------------------------------------------|
G|---------------------------------------------|
D|-5~---8--10--3-5----5--3-5----5--------------|
A|-5~---8--10--3-5----5--3-5----5--------------|
E|-3~---6---8--1-3--3-3--1-3--3-3--------------|
 PM                 .         .                |
 |Guitar 2 (w/ wah)                            |
e|---------------------------------------------|
B|------------------13h15-15-15p13p11-11/13\11-|
G|---------------------------------------------|
D|---------------------------------------------|
A|---------------------------------------------|
E|---------------------------------------------|

 |Guitar 1
e|----------------------------------------------------------|
B|----------------------------------------------------------|
G|----------------------------------------------------------|
D|-5~---8--10--3-5----5--3-5----5---------------------------|
A|-5~---8--10--3-5----5--3-5----5---------------------------|
E|-3~---6---8--1-3--3-3--1-3--3-3---------------------------|
 PM                 .         .                             |
 |Guitar 2 (w/ wah) PICKSCRAPES!                            |
e|-----------------------------------------------------24v\-|
B|------------------/x--/x--/x--/x--/x--/x--/x--/x--/x------|
G|------------------/x--/x--/x--/x--/x--/x--/x--/x--/x------|
D|----------------------------------------------------------|
A|----------------------------------------------------------|
E|----------------------------------------------------------|

 |Guitar 1
e|-----------------------------------------------------|
B|-----------------------------------------------------|
G|-----------------------------------------------------|
D|-5~---8--10--3-5----5--3-5----5----------------------|
A|-5~---8--10--3-5----5--3-5----5----------------------|
E|-3~---6---8--1-3--3-3--1-3--3-3----------------------|
 PM                 .         .                        |
 |Guitar 2 (w/ wah)                                    |
e|------------------10h13p10-10h13p10-10h13p10-15b-15v-|
B|-----------------------------------------------------|
G|-----------------------------------------------------|
D|-----------------------------------------------------|
A|-----------------------------------------------------|
E|-----------------------------------------------------|

 |Guitar 1 ("School's....out...completely")
e|-----------------|
B|-----------------|
G|-----------------|
D|-5~-----3~---10~-|
A|-5~-----3~---10~-|
E|-3~-----1~----8~-|
 |Guitar 2         |
e|-----------------|
B|-----------------|
G|----10b~---------|
D|-----------------|
A|-----------------|
E|-----------------|

BRIDGE 2 | This was freakin HARD. I guarantee there's more notes in there
but I can't get them all. This is the way I play it, and it works for me :)

 Guitar 1 - 2:11
e|-------------|
B|-8-7-5---5-7-|
G|-------7-----|
D|-------------|
A|-------------|
E|-------------|x8

 Guitar 1 - 2:18
e|-----------------|
B|-12-10-8----8-10-|
G|---------10------|
D|-----------------|
A|-----------------|
E|-----------------|x8

 |Guitar 1 - 2:24
e|-----------------|
B|-8-7-5---5-7-----|
G|-------7---------|
D|-----------------|
A|-----------------|
E|-----------------|x16
 |Guitar 2         |
e|-----------------|
B|-12-10-8----8-10-|
G|---------10------|
D|-----------------|
A|-----------------|
E|-----------------|x16

CHORUS 3
 |Both guitars
e|----------------------------------------------------|
B|----------------------------------------------------|
G|----------------------------------------------------|
D|----------------------------------------------------|
A|-5-5555-5555-555101010101010--5-5555-5555-555555555-|
E|-3-3333-3333-333-8-8-8-8-8-8--3-3333-3333-333333333-|x2
PM . .... .... ... . . . . . .  . .... .... .........

 |Both guitars
e|------------------------------------------|
B|------------------------------------------|
G|------------------------------------------|
D|------------8~-10~------------------------|
A|-5-5555-555-8~-10~--5-5555-5555-555555555-|
E|-3-3333-333-6~--8~--3-3333-3333-333333333-|x2
PM . .... ...         . .... .... .........


OUTRO
 |Both guitars
e|-----------------------------------|
B|-----------------------------------|
G|-----------------------------------|
D|-5x--5x--8x--10x--3-5x-5x--3-5x-5x-|
A|-5x--5x--8x--10x--3-5x-5x--1-5x-5x-|
E|-3x--3x--6x---8x--1-3x-3x--1-3x-3x-|

 "School   Is   Out   Com-plete-ly"
e|------------------------------------|
B|------------------------------------|
G|------------------------------------|
D|-5x-----5x----3~---------10---10~---|
A|-5x-----5x----3~---------10---10~---|
E|-3x-----3x----1~----------8----8~---|

Hope she sounds good to you :) Enjoy.

===============================================================================
Related for Schools Out tab
Advertisement will be closed in 10 seconds