Song name
# A B C D E F G H I J K L M N O P Q R S T U V W X Y Z

Gwar - Let Us Slay tab

-------------------------------------------------------------------------------
			     Let Us Slay - Gwar
-------------------------------------------------------------------------------
Tabbed by:metalrockerdude
Email: xmetalrockerdudex@hotmail.com
                       These all are Flattus's parts!
Tuning:D# A# F# C# G# D#
This is all i have figured out so far, i will do my best to update this tab.

Intro                                                 Chorus
e|---------------------------------------------------------------------------|
B|-------9--------------12---------------------------------------------------|
G|-9-10----10---9--10--------10---9---10---9---10----9*---9------------------|
D|---------------------------------------------------------------------------|
A|-------------------------------------------------------------8-7--8-7------|
E|----------------------------------------------------------------------0-0--|
   PM. . . . . . . . . .              PM....           PM........
e|--------------------------------------------------------------------------|
B|--------------------------------------------------------------------------|
G|--------------------------9--------------------------------------9--------|
D|---7--7--7-----10-10-10---------------------7--7--7-----5--5--5-----------|
A|---5--5--5-----8--8--8-------8-7-8-7--------5--5--5-----3--3--3---8-7-8-7-|
E|0--5--5--5--0--8--8--8---------------0-0-0--5--5--5--0--3--3--3-----------|
          PM.               PM.....
e|--------------------------------------------------------------------------|
B|--------------------------------------------------------------------------|
G|--------------------------------------------------------------------------|
D|------7----10-10-10--5--5---------8--3--3---5--5--------8-----------------|
A|------5-----8--8--8--3--3---------6--3--3---3--3--------6-----------------|
E|-0-0--5--0--8--8--8--3--3--0-0-0--6--1--1---3--3--0-0-0-6-----------------|

Sorry its incomplete but someone needed to put a tab up for this badass song!

************************************

| /   slide up
| \   slide down
| h   hammer-on
| p   pull-off
| ~   vibrato
| +   harmonic
| x   Mute note
| b   Bend
| pb  Pre-bend
| br  Bend release
| pbr Pre-bend release
| brb Bend release bend

************************************
Tap to rate this tab
# A B C D E F G H I J K L M N O P Q R S T U V W X Y Z