Song name
# A B C D E F G H I J K L M N O P Q R S T U V W X Y Z

Gwar - Hate Love Songs tab

 ------------------------   ---------------------------
|------------------------| |---------------------------|
|------------------------| |---------------------------|
|------------------------| |---------------------------|
|---5-5-5-5-6-5---5------| |--5-5-5-5-6-5-------5------|
 ---3-3-3-3-----6---6-5--   --3-3-3-3-----6-5h6---6-5--

 ----------------------------------------
|----------------------------------------|
|----------------------------------------|
|----------------------------------------|
|--5----12----10--10--10-10-10-10-10-10--|
 --3----10-----8---7---8--7--8--7--8--7--

main riff
 -------------------------------------------------------------------
|-------------------------------------------------------------------
|-------------------------------------------------------------------
|-------------------------------------------------------------------
|--55555555555--12-12-12-12-12-12-12-12-12-12-12--10-10-10-10-10-10-
 --33333333333--10-10-10-10-10-10-10-10-10-10-10---8--8--8--8--8--8-

 ----------------------------------------
|----------------------------------------|
|----------------------------------------|
|----------------------------------------|
|--10-10-10-10-10-10--10-10-10-10-10-10--|
 ---7--7--7--7--7--7---8--7--8--7--8--7--

I'm bored with immortality......(aren't we ALL?)
 ---------------------------------------------------
|---------------------------------------------------| Chorus
|---------------------------------------------------|Play Twice
|---9-7-1O-1O-1O-1O--9-9-9-9--7-7-7-7--5-5-5-5-7----|
|---7-5--8--8--8--8--7-7-7-7--5-5-5-5--3-3-3-3-5----|
 --------------------------------------------------

Well I would love to figure out the solo but 
I have been a little busy lately. I'll get it someday and finish off this
tune.
Tap to rate this tab
# A B C D E F G H I J K L M N O P Q R S T U V W X Y Z