Song name
# A B C D E F G H I J K L M N O P Q R S T U V W X Y Z

Gwar - Sick Of You tab

Help us improve GuitareTab! Take a short survey!
"Sick of You"
by: Gwar
on Scumdogs of The Universe
Tab by: Cory McDowell

Intro :
d#|-------------0-------------------2-----|
G#|-------------0--0----------------2--2--|
C#|---------------------------------------|
F#|---------------------------------------|
A#|-4-4-4-4-4-----------4-4-4-4-4---------|
D#|-2-2-2-2-2-----------2-2-2-2-2---------|(play 2x)
 PM..........           .........


"The Solo like Part" Lead:
d#|-----------------------|
G#|--7---5----------------|
C#|----6---6----4--2------|
F#|------------------4----|
A#|-----------------------|
D#|-----------------------|(Play 2x)

"The Solo like Part" Rythem:
d#|---------------------------------------------------------|
G#|---------------------------------------------------------|
C#|---------------------------------------------------------|
F#|---------------------------------------------------------|
A#|-4--4--4--4--4--4--4--4-4----4--4--4--4--4--4-4-4-4-4-4--|
D#|-2--2--2--2--2--2--2--2-2----2--2--2--2--2--2-2-2-2-2-2--|(Play 2x)
 PM.........................    ..........................

Verse:
d#|---------------------------------------------------------|
G#|---------------------------------------------------------|
C#|---------------------------------------------------------|
F#|---------------------------------------------------------|
A#|-4--4--4--4--4--4--4--4-4----4--4--4--4--4--4-4-4-4-4-4--|
D#|-2--2--2--2--2--2--2--2-2----2--2--2--2--2--2-2-2-2-2-2--|
 PM.........................    ..........................

Verse continued:
d#|---------------------------------------------|
G#|---------------------------------------------|
C#|-----------------------------------6-6-6-6---|
F#|---------------------------4-4-4-4-4-4-4-4---|
A#|-4--4--4--4--4--4--4--4-4--4-4-4-4-4-4-4-4---|
D#|-2--2--2--2--2--2--2--2-2--2-2-2-2-2-2-2-2---|
 PM.........................

Chorus:
d#|----------------------------------------|
G#|----------------------------------------|
C#|-6-------------------6--6---------------|
F#|-4--6--7--6-4-2------4--4--6--6--4--6-6-|
A#|----4--5--4-2-0------------4--4--2--4-4-|
D#|----------------------------------------|(play 2x)

Breakdown Lead:
d#|------5--------5p4------4p2--|
G#|------2-----2----------------|
C#|-2-4-----------------4----2--|
F#|-----------------------------|
A#|-----------------------------|
D#|-----------------------------|(play 6x...by itself 4x then rythem part)

Breakdown Rythem Part 1:(Starting on 5th repeat of "Breakdown Part 1":
d#|---------------2----|
G#|---------------2----|
C#|--------------------|    Your probably thinking that it wont fit, but
F#|--------------------|   this part is played the same as the intro, so
A#|-4-4-4-4-4-4-4------|   it all fits together.
D#|-2-2-2-2-2-2-2------|(Play 4x)

Breakdown Rythem Part 2:
d#|-------------------|
G#|-------------------|
C#|-------------------|
F#|-------------------|
A#|-4-4-4-2-4-4-4-2---|
D#|-2-2-2-0-2-2-2-0---|(play 4x...the first time is still with the lead part
                                 and the last 3 its by itself)

Ending:
d#|--------------------------|
G#|---------2----------------|
C#|---3-------3----3---------|
F#|-----4-------4----4-------|
A#|-------4--------------4---|
D#|-2--------------------2---|


This is how it all goes:
-Intro 2x
-"The Solo Part" 2x
-Verse (both parts)
-Chorus 2x
-Intro 2x
-"The Solo Part" 2x
-Verse (both parts)
-Chorus 2x
-Breakdown
-Chorus 6x
-Ending
Related for Sick Of You tab