Guitaretab - guitar tabs
Song name
# A B C D E F G H I J K L M N O P Q R S T U V W X Y Z

Hans Zimmer - Davy Jones Theme tab

This is my interpretation of the little tune from Pirates of the Caribbean: Dead Manís
Chest that plays when Davy Jones opens his little heart music box thingy.  Well, actually 
this is the soundtrack version, but I like it better.

This should all be fingerpicked
[ Tab from: http://www.guitaretab.com/h/hans-zimmer/91342.html ]
E---------0--1-----3--5-----8-6-5---------5-----6--8-----10-6-5-----3--
B---3--------3--3-----3--3------3--3------3--3-----5--5-------3--3-----
G---2--2---------------------------------------------------------------
D----------------------------------------------------------------------
A----------------------------------------------------------------------
E----------------------------------------------------------------------

E---5---------6-----8--5-----1--3-----6-5-1--------0--------------0----
B---3--3------3--3-----3--3-----2--2------------3--------1--2--------3-
G-----------------------------------------2--2-----0--0-----2--2-----2-
D----------------------------------------------------------------------
A----------------------------------------------------------------------
E----------------------------------------------------------------------

Thanks, this is my first tab. Arrrrrr
Related for Davy Jones Theme tab