Song name
# A B C D E F G H I J K L M N O P Q R S T U V W X Y Z

Hatebreed - Doomsayer tab

Doomsayer

Hatebreed

Drop C

.= palm mute (It's all pretty heavy palm muting)

Tabbed by: escalade (keganjgrode@yahoo.com)

\m/

---------------------------------------|
---------------------------------------|
---------------------------------- x10-|
---------------------------------------|
----------8-5-8-9----------7-4-7-8-----|
-00000000---------00000000-------------|
 ........         ........
-------------------------------------------------------------|
-------------------------------------------------------------|
-------------------------------------------------------------|
----------0-----------3---9-8-6----------0-------------------| x4
----------0-----------3---9-8-6----------0-------------------|
-00000000-0--00000000-3-0-9-8-6-00000000-0-0000000000000000--|
 ........    ........   .       ........   ................
-------------------------------------------------------------|
-------------------------------------------------------------|
-------------------------------------------------------------|
----------3------6------5-8------3---3---------------3---3-3-| x4(dont know the
----------3------6------5-8--0-0-3-0-3-0-0-0-0-0-0-0-3-0-3-3-| rhythm for sure)
-33333333-3-6666-6-5555-5-8--0-0-3-0-3-0-0-0-0-0-0-0-3-0-3-3-|
 ........   ....   ....      . .   .   . . . . . . .   .
---------------------------------------|
---------------------------------------|
---------------------------------- x10-|
---------------------------------------|
----------8-5-8-9----------7-4-7-8-----|
-00000000---------00000000-------------|
 ........         ........
-------------------------------------------------------------|
-------------------------------------------------------------|
-------------------------------------------------------------|
----------0-----------3---9-8-6----------0-------------------| x4
----------0-----------3---9-8-6----------0-------------------|
-00000000-0--00000000-3-0-9-8-6-00000000-0-0000000000000000--|
 ........    ........   .       ........   ................

------------------------------------------------------------    ---------|
------------------------------------------------------------    ---------|
------------------------------------------------------------    ---------|
----------3------6------5-8------3---3---------------3---3-3 x4 -0~~~~~~-|
----------3------6------5-8--0-0-3-0-3-0-0-0-0-0-0-0-3-0-3-3    -0~~~~~~-|
-33333333-3-6666-6-5555-5-8--0-0-3-0-3-0-0-0-0-0-0-0-3-0-3-3    -0~~~~~~-|
 ........   ....   ....      . .   .   . . . . . . .   .

---------------------------------------------------------    ---|
---------------------------------------------------------    ---|
---------------------------------------------------------    ---|
---------------------------------------------------------    -0-|
-00-00-00000000-00-00-00000000-00-00-00000000-00-11-44-33    -0-|
-00-00-00000000-00-00-00000000-00-00-00000000-00-11-44-33 x4 -0-|
 .. .. ........ .. .. ........ .. .. ........ .. .. .. ..

\m/
Tap to rate this tab
# A B C D E F G H I J K L M N O P Q R S T U V W X Y Z