Guitaretab - guitar tabs
Song name
# A B C D E F G H I J K L M N O P Q R S T U V W X Y Z

Hatebreed - Spitting Venom tab

Hatebreed
Supramecy
Spitting Venom
Tabbed by Tias


Tuning: C,G,C,F,A,D

Intro:
                        1 time    2 time
D|--------------------|---------|-------|
A|--------------------|---------|-------|
F|--------------------|---------|-------| 2X
C|-0-6~--0-6-0-6-0~--|-0-0-0-0-|--0--0-|
G|-0-6~--0-6-0-6-0~--|-0-0-0-0-|--0--0-|
C|-0--6~--0-6-0-6-0~--|-0-0-0-0-|--0--0-|
                        . . . .    .  .

Verse:
[ Tab from: http://www.guitaretab.com/h/hatebreed/84032.html ]
D|------------------------------|---------------------|
A|------------------------------|---------------------|
F|------------------------------|---------------------| 2X
C|-3-7\6------------3---7\6-----|-8-7--11-10--8-7-----|
G|-3-7\6------------3---7\6-----|-8-7--11-10--8-7-----|
C|-3-7\6--0-0-0-0-0-3-0-7\6-0-0-|-8-7-11-10--8-70-0-|
          . . . . .   .     . .                   . .

D|-------------------------|
A|-------------------------| 
F|-------------------------| A lot
C|-------------------------|
G|-0-0-0-1--0-0-1--0-0-0-0-|
C|-0-0-0-1--0-0-1--0-0-0-0-|
   . . . .  . . .  . . . . 

And then with a riff the other guitar does a open C 
Related for Spitting Venom tab