Song name
# A B C D E F G H I J K L M N O P Q R S T U V W X Y Z

Head Automatica - Boy Crazy tab

-----------------------------------------------------------
			     Boy Crazy- HEAD AUTOMATICA
-------------------------------------------------------------------------------
Tabbed by:pop_rocks!!!
Email:

Tuning:EADGBe

e|-------------------------------------------------------------|
B|-------------------------------------------------------------|
G|-----------------------555555----5-77777-5-7-10-10-10-10-10--|
D|-------777777-5-7-------------7------------------------------|
A|-------------------------------------------------------------|
E|-------------------------------------------------------------|

e|----------------------------------------------------------|
B|----------------------------------------------------------|
G|------------------------------------------14--------------|
D|-----14-14-14-14-14----12-(x3)------12-12-12-12-12-12-12--|
A|----------------------------------------------------------|
E|----------------------------------------------------------|
Tap to rate this tab
# A B C D E F G H I J K L M N O P Q R S T U V W X Y Z