Song name
# A B C D E F G H I J K L M N O P Q R S T U V W X Y Z

Head Automatica - Graduation Day tab

-------------------------------------------------------------------------------
			     Graduation Day - Gym class heroes
-------------------------------------------------------------------------------
Tabbed by:Rather_dashing
Email:ewiniger@gmail.com

Tuning:

e|---------------------------------------------------------------------------|
B|-----------------------------------------------13---13---------------------|
G|---------------------------------------------------------------------------|
D|10---15--15--15-----17--17--17-----10--10--10----10----10------------------|
A|---------------------------------------------------------------------------|
E|---------------------------------------------------------------------------|

e|---------------------------------------------------------------------------|
B|---------------------------------------------------------------------------|
G|---------------------------------------------------------------------------|
D|-15-15-15-15----14-14-14-14---12-12-12-12---10-10-10-10--------------------|
A|---------------------------------------------------------------------------|
E|---------------------------------------------------------------------------|
a few times

then this everyonce and a while
e|---------------------------------------------------------------------------|
B|---------------------------------------------------------------------------|
G|---------------------------------------------------------------------------|
D|---15-15-15-15----14-14-14-14---17-----------------------------------------|
A|---------------------------------------------------------------------------|
E|---------------------------------------------------------------------------|

a bunch of random guitar flutter in the background 
Tap to rate this tab
# A B C D E F G H I J K L M N O P Q R S T U V W X Y Z