Song name
# A B C D E F G H I J K L M N O P Q R S T U V W X Y Z

Hellacopters - Everythings On Tv tab

Song: Everything's on TV
Band: The Hellacopters
Album: Rock & Roll is Dead!
Year: 2005
Tab: Intro
Tabber: daultrabomb
Tuning: Half-step down


Just the Intro. Sounds correct to me. The Tab by "God of Music" is correct, too, but 
this one is much easier; very simple chords.
My first tab, enjoy! :-)



     F        D       Am                F        D        Am
eb|---------------------------0-------|-------------------------------------|
Bb|------1--------3---------1---1-----|-----1--------3--------1-3-3/5-3-----|
G#|----2---2----2---2-----2-------2---|---2---2----2---2----2-----------5-4-|
D#|--3--------0---------2-----------2-|-3--------0--------------------------|
Ab|-------------------0---------------|-------------------0-----------------|
Eb|-----------------------------------|-------------------------------------|



       F         D        Am                   F         D        Am
   |------------------------------0--------|----------------------0~~-------|
   |-------1---------3----------1---1------|-------1----------3---1~~-------|
   |-----2---2-----2---2------2-------2----|-----2---2-----2------2~~-------|
   |---3---------0----------2-----------2--|---3---------0--------2~~-------|
   |----------------------0----------------|----------------------0~~-------|
   |---------------------------------------|----------------------x---------|


The main part is a strumming variation of the chords used in the intro
(F, D & Am).
I'm not sure how the last part is played correctly.
I think it sounds pretty cool and damn close to the original.

       F          D        A
   ||------------------------------------------||
   ||------------------------------------------||
   ||--10-10-10---7-7---7----------------------||
   ||--10-10-10---7-7---7--7-------------------||
   ||--8--8--8----5-5---5--7-------5-5/7-5-----||
   ||----------------------5---5-8---------8-7-||
Tap to rate this tab
 
# A B C D E F G H I J K L M N O P Q R S T U V W X Y Z