Song name
# A B C D E F G H I J K L M N O P Q R S T U V W X Y Z

Hellacopters - Soulseller tab

One of their greatest guitar riffs!!!
Tune your guitar 1/2 step down!

1st version
|-2-2-2-------------------------|
|-3-3-3-------------------------|
|-2-2-2-----0-5p4p0-------------|
|-0-0-0-0-3---------3-----------|
|-------------------------------|
|-------------------------------|

2nd version
|-2-2-2-------------------------|
|-3-3-3-------------------------|
|-2-2-2-------5p4p0-------------|
|-0-0-0-0-3/5-------3-----------|
|-------------------------------|
|-------------------------------|
Tap to rate this tab
# A B C D E F G H I J K L M N O P Q R S T U V W X Y Z