Guitaretab - guitar tabs
Song name
# A B C D E F G H I J K L M N O P Q R S T U V W X Y Z

Hellyeah - Better Man tab

-------------------------------------------------------------------------------
			     SONG NAME - Band Name
-------------------------------------------------------------------------------
Tabbed by: rooster09
Email:

Great song, sorry if it's a bit confusing.

Tuning: Standard

Intro: (x2)
e|---------------------------------------------------3-----------------------------|
B|------------3--1--0--1--------1--0-------------------3-----------------3---------|
G|-----2----------------------0------2--0---------0------0---------0-------0-------|
D|---2---2------------------2-------------------0----------0-----2---2-------2-----|
A|-0----------------------3-------------------2----------------3---------------3---|
E|------------------------------------------3--------------------------------------|

e|---------------------------------0----------------3------------------------------|
B|-----------3--1--0--1--------3/1---3\1--------------3-------------3---------3----|
G|-----2---------------------0------------------0-------0---------0---------0------|
D|---2---2-----------------2------------------0-----------0-----2---------0--------|
A|-0---------------------3------------------2-----------------3---------2----------|
E|----------------------------------------3----------------------------------------|
Verse: (same as intro)

Chorus: 
Listen for strumming pattern
      Am                   Cmajor                 Gmajor              A5
e|-0-0-0-0-0-0-0-0--------0-0-0-0-0-0-----------3-3---3-3-3---------0-0-0----------|
B|-1-1-1-1-1-1-1-1--------1-1-1-1-1-1-----------3-3---3-3-3---------0-0-0----------|
G|-2-2---2-2-2-2-2--------0-0-0-0-0-0-----------0-0-0-0-0-0---------2-2-2----------|
D|-2-------2-2---2--------2---2---2-2---------0-0-0-0-0-0-0---------2-2-2----------|
A|-0-------0-------0-2-3--3---------3--5-3-2--2-2---2-2-2-2---------0-0-0----------|
E|--------------------------------------------3-3---3-----3--0-3-5-----------------|
[ Tab from: http://www.guitaretab.com/h/hellyeah/257396.html ]
Chorus: (second part)
Same as above except after the Cmajor end with:
"I cried a tear for my mother......."
e|-0--------------------------1--------------------------1------------------------|
B|-1--------------------------1--------------------------1------------------------|
G|-0--------------------------2-2-2----------------------2-2-2--------------------|
D|-2-------------0-------0----3-3-3-3------0-------0-----3-3-3--------------------|
A|-3--5-3-2----2---2---0---0--3-3-3-3----2---2---0---0---3-3-3--------------------|
E|-----------3-------2--------1-1-1-1--3-------2---------1-1-1--------------------|


Intro (x1)


Verse


Chorus

   
During Solo and last Verse:
e|-----------------------------------------------------------------------------|
B|--------------------2--------------------------------------------------------|
G|-----2----5---------2--------------------------------------------------------|
D|-5---2----5----5----0--------------------------------------------------------|
A|-5---0----3----5-------------------------------------------------------------|
E|-3-------------3-------------------------------------------------------------|



Chorus


Outro:
e|-0-0-0-0--------0-0-0----------3-3-3-3---------0-0-0-0-----------------------|
B|-1-1-1-1--------1-1-1----------3-3-3-3---------0-0-0-0-----------------------|
G|-2-2-2-2--------0-0-0----------0-0-0-0---------2-2-2-2-----------------------|
D|-2-----2--------2-2-2----------0-0-0-0---------2-2-2-2-----------------------|
A|---------0-2-3--3-----5-3-2----2-2---2---------0-----0-----------------------|
E|-------------------------------3-----3--0-3-5--------------------------------|





************************************

| /   slide up
| \   slide down
| h   hammer-on
| p   pull-off
| ~   vibrato
| +   harmonic
| x   Mute note
| b   Bend
| pb  Pre-bend
| br  Bend release
| pbr Pre-bend release
| brb Bend release bend

************************************
Related for Better Man tab
Better Man chords by Hellyeah